Rise Against - Six Ways Till Sunday Chords & Tabs

 

Six Ways Till Sunday Chords & Tabs

Rise Against Chords & Tabs

Version: 1 Type: Tab 0 ratings
1 star 2 stars 3 stars 4 stars 5 stars
comments

Six Ways Till Sunday Tab

Tabbed By: Bryan
Email: fallen_desire89@hotmail.com

Palm Mute= *

Intro - GTR 1 and 2
e|---------------| 
B|---------------| 
G|-------9-------| 
D|-2~~~--9-9-----| 
A|-2~~~--7-9-----| 
E|-0~~~----7-----|

Verse x2
e|------------------------------------------| 
B|------------------------------------------| 
G|-----------44444444-----------------------| 
D|-22222222--44444444--677777777--99999999--| 
A|-22222222--22222222--677777777--99999999--| 
E|-00000000------------455555555--77777777--|

PICKSLIDE

Chorus x2 (Start right after the words " Is all you know!")
e|----------------------------------|                     
B|----------------------------------|                     
G|-666------------------------------|                     
D|-666--999--777777-222222-999999---| 
A|-444--999--777777-222222-999999---| 
E|------777--555555-000000-777777---| 

("youve been hiding so long you cant find yourself") 
e|----------------------------------| 
B|----------------------------------| 
G|-666--888--999999-----------------| 
D|-666--888--999999-222222-999999---| 
A|-444--666--777777-222222-999999---| 
E|------------------000000-777777---| 
[ Tab from: http://www.guitartabs.cc/tabs/r/rise_against/six_ways_till_sunday_tab.html ]
Interlude x1 ("your claiming to be")
e|----------------------------------| 
B|----------------------------------| 
G|-9~~~~~---------------------------| 
D|-9~~~~~--9~~~~~--97~~~~~--9~~~~~--| 
A|-7~~~~~--9~~~~~--97~~~~~--9~~~~~--| 
E|---------7~~~~~--75~~~~~--7~~~~~--|  

PICK SLIDE 

Verse

Chorus

Intro

Outro  
e|---------------------------| 
B|---------------------------| 
G|-************--------------| 
D|-222222222222--------------| 
A|-222222222222--------------| 
E|-000000000000--------------|

(Just GTR 1)x2 ("Your the new revolution")
e|---------------------------| 
B|---------------------------| 
G|-------44444---------------| 
D|-22222-44444-77777--99999--| 
A|-22222-22222-77777--99999--| 
E|-00000-------55555--77777--|

GTR 1 - x6
e|---------------------------| 
B|---------------------------| 
G|-------44444---------------| 
D|-22222-44444-77777--99999--| 
A|-22222-22222-77777--99999--| 
E|-00000-------55555--77777--|

GTR 2 - x3
e|---------------------------| 
B|---------------------------| 
G|-------44444---------------| 
D|-22222-------77777--99999--| 
A|---------------------------| 
E|---------------------------|

e|---------------------------| 
B|-------------9~-7~----5~---| 
G|-------44444-------9~------| 
D|-22222---------------------| 
A|---------------------------| 
E|---------------------------|
Comments