Rise Against - Rumors Of My Demise Have Been Greatly Exaggerated Chords & Tabs

 

Rumors Of My Demise Have Been Greatly Exaggerated Chords & Tabs

Rise Against Chords & Tabs

Version: 3 Type: Tab

Rumors Of My Demise Have Been Greatly Exaggerated Tab

   
Rumors of My Demise Have Been Greatly Exaggerated – Rise Against

DROP D TUNING
(Tune low E to a D)

Edwards96@mchsi.com


Intro

Guitar 1

e--------------------------------------------------------------|
B--------------------------------------------------------------|
G--------------------------------------------------------------|
D-10-10-8/10/8-3333--6666--8888--------------------------------|
A-10-10-8/10/8-3333--6666--8888--------------------------------|
D-10-10-8/10/8-3333--6666--8888--------------------------------|

Guitar 2

e--------------------------------------------------------------|
B--------------------------------------------------------------|
G-12-8-10-12/13/12-8-10-12/13/12-8-10-12/13/12-8-10------------|
D-x--x-x—-x/-x/-x--x--x—-x/-x/-x-x-x—-x/-x/-x—-x-x-------------|
A-10-6-8—-10/11/10-6-8—-10/11/10-6-8—-10/11/10-6-8—------------|
D--------------------------------------------------------------|

Verse - Play Four Times

e--------------------------------------------------------------|
B--------------------------------------------------------------|
G--------------------------------------------------------------|
D--------------------------------------------------------------|
A--------------------------------------------------------------|
D-10-10-8h10p10-3-3-3-3-6-6-6-6-8-8-8-8------------------------|
  Xxxxxxxxxxxxxxxxxxxxxxxxxxxxxxxxxxxxx – palm muted


Pre-Chorus(When I die)

e-------------------------------------------------------------------|
B-------------------------------------------------------------------|
G-------------------------------------------------------------------|
D-6666----3333----6666----3333----6666---3333----6666----8888—------|
A-6666----3333----6666----3333----6666---3333----6666----8888-------|
D-6666----3333----6666----3333----6666---3333----6666----8888-------|


Chorus (Play Twice)

e--------------------------------------------------------------|
B--------------------------------------------------------------|
G----------33333333--55555555----------------------------------|
D-11111111-33333333--55555555--66666666------------------------|
A-11111111-11111111--33333333--66666666------------------------|
D-11111111---------------------66666666------------------------|

Intro Again

Guitar 1

e--------------------------------------------------------------|
B--------------------------------------------------------------|
G--------------------------------------------------------------|
D-10-10-8/10/8-3333--6666--8888--------------------------------|
A-10-10-8/10/8-3333--6666--8888--------------------------------|
D-10-10-8/10/8-3333--6666--8888--------------------------------|

Gguitar 2

e--------------------------------------------------------------|
B--------------------------------------------------------------|
G-12-8-10-12/13/12-8-10-12/13/12-8-10-12/13/12-8-10------------|
D-x--x-x—-x/-x/-x--x--x—-x/-x/-x-x-x—-x/-x/-x—-x-x-------------|
A-10-6-8—-10/11/10-6-8—-10/11/10-6-8—-10/11/10-6-8—------------|
D--------------------------------------------------------------|
[ Tab from: http://www.guitartabs.cc/tabs/r/rise_against/rumors_of_my_demise_have_been_greatly_exaggerated_tab_ver_3.html ]
Verse - Play Four Times

e--------------------------------------------------------------|
B--------------------------------------------------------------|
G--------------------------------------------------------------|
D--------------------------------------------------------------|
A--------------------------------------------------------------|
D-10-10-8h10p10-3-3-3-3-6-6-6-6-8-8-8-8------------------------|
  Xxxxxxxxxxxxxxxxxxxxxxxxxxxxxxxxxxxxxxxxxxxxxxxxx –palm muted

Pre-Chorus (When I die)

e-------------------------------------------------------------------|
B-------------------------------------------------------------------|
G-------------------------------------------------------------------|
D-6666----3333----6666----3333----6666---3333----6666----8888—------|
A-6666----3333----6666----3333----6666---3333----6666----8888-------|
D-6666----3333----6666----3333----6666---3333----6666----8888-------|

Chorus (Play Twice)                            Second Time Only

e----------------------------------------   ----------------------|
B----------------------------------------   ----------------------|
G----------33333333--55555555------------   ----------------------|
D-11111111-33333333--55555555--66666666--   --3-3-----------------|
A-11111111-11111111--33333333--66666666--   --3-3-----------------|
D-11111111---------------------66666666--   --3-3-----------------|

The Break (We came...)


e---------------------------------------------------------|
B---------------------------------------------------------|
G------------66---------------------66--------------------|
D-33-1-33--1-66-6-1-1---1-33-1-33-1-66-6-1-1--------------|
A-33-1-33--1-44-6-1-1---1-33-1-33-1-44-6-1-1--------------|
D-33-1-33--1----6-1-1---1-33-1-33-1----6-1-1--------------|

Then Strum Starting at: (Where the **** will you hide) Play Twice

e--------------------------------------------------------|
B--------------------------------------------------------|
G----------------------666666----------------------------|
D-1-333333-1-333333--1-666666-6-1-1-1-1-1-1-1------------|
A-1-333333-1-333333--1-444444-6-1-1-1-1-1-1-1------------|
D-1-333333-1-333333--1--------6-1-1-1-1-1-1-1------------|


Pre-Chorus (When I die...)

e-------------------------------------------------------------------|
B-------------------------------------------------------------------|
G-------------------------------------------------------------------|
D-6666----3333----6666----3333----6666---3333----6666----8888—------|
A-6666----3333----6666----3333----6666---3333----6666----8888-------|
D-6666----3333----6666----3333----6666---3333----6666----8888-------|

Chorus (Play Four Times)

e-------------------------------------------------------------|
B-------------------------------------------------------------|
G----------33333333--55555555---------------------------------|
D-11111111-33333333--55555555--66666666-----------------------|
A-11111111-11111111--33333333--66666666-----------------------|
D-11111111---------------------66666666-----------------------|


After the last chorus play


e-----
B-----
G-----
D-1~--
A-1~--
D-1~--