Rise Against - Paper Wings Chords & Tabs

 

Paper Wings Chords & Tabs

Rise Against Chords & Tabs

Version: 2 Type: Tab 0 ratings
1 star 2 stars 3 stars 4 stars 5 stars
comments

Paper Wings Tab

   
#----------------------------------PLEASE NOTE---------------------------------#
#This file is the author's own work and represents their interpretation of the #
#song. You may only use this file for private study, scholarship, or research. #
#------------------------------------------------------------------------------#


Title: Paper Wings
Artist: Rise Against
Album: Siren Song of the Counter Culture



Tabbed by: Hank Cramer (bodomchild420@aol.com)


--Tune Down 1/2 Step--
D#, G#, C#, F#, A#, D# [or]
Eb, Ab, Db, Gb, Bb, Eb 







-INTRO/CHORUS-

Eb|--------------------------------------------------||
Bb|--------------------------------------------------||
Gb|-9-9-9-9-9-9-9-9-9-9-9-9--------------8-8-8-8-8-8-||
Db|-9-9-9-9-9-9-9-9-9-9-9-9--9-9-9-9-9-9-6-6-6-6-6-6-||
Ab|-7-7-7-7-7-7-7-7-7-7-7-7--6-6-6-6-6-6-------------||
Eb|--------------------------------------------------||


Eb|--------------------------------------------------||
Bb|--------------------------------------------------||
Gb|-6-6-6-6-6-6-6-6-6-6-6-6--------------------------||
Db|-6-6-6-6-6-6-6-6-6-6-6-6--7-7-7-7-7-7-7-7-7-7-7-7-||
Ab|-4-4-4-4-4-4-4-4-4-4-4-4--7-7-7-7-7-7-7-7-7-7-7-7-||
Eb|--------------------------5-5-5-5-5-5-5-5-5-5-5-5-||


-SOLO [INTRO/CHORUS]-

Eb|-7-5-4-5-4----7-5-9-9-9----5-4---4----------4-----||
Bb|-------------------------------7---7----7-5---7-5-||
Gb|--------------------------------------------------||
Db|--------------------------------------------------||
Ab|--------------------------------------------------||
Eb|--------------------------------------------------||



-VERSUS RIFF1-

Eb|--------------------------------------------------||
Bb|--------------------------------------------------||
Gb|--6-6-------------------4-4--4/5----2-2-2-2-2-2---||
Db|--6-6----2-2-2-2-2-2----4-4--4/5----2-2-2-2-2-2---||
Ab|--4-4----2-2-2-2-2-2----2-2--2/3----0-0-0-0-0-0---||
Eb|---------0-0-0-0-0-0------------------------------||

-VERSUS RIFF2-
[ Tab from: http://www.guitartabs.cc/tabs/r/rise_against/paper_wings_tab_ver_2.html ]
Eb|--------------------------------------------------||
Bb|--------------------------------------------------||
Gb|--6-6-----------------444444-222222-444444-222222-||
Db|--6-6----2-2-2-2-2-2--444444-222222-444444-222222-||
Ab|--4-4----2-2-2-2-2-2--222222-000000-222222-000000-||
Eb|---------0-0-0-0-0-0------------------------------||



-BRIDGE-

Eb|--------------------------------------------------||
Bb|--------------------------------------------------||
Gb|-------------4-4-4-4-4-4-2-2-2-2-2-2-4-4-4-4-4-4--||
Db|-2-2-2-2-2-2-4-4-4-4-4-4-2-2-2-2-2-2-4-4-4-4-4-4--||
Ab|-2-2-2-2-2-2-2-2-2-2-2-2-0-0-0-0-0-0-2-2-2-2-2-2--||
Eb|-0-0-0-0-0-0--------------------------------------||

-[GUITAR SOLO]-  
Eb|------------------------------------------7-||
Bb|--5-5-7p5-4--5-5-7p5-4--5-5-7p5-4-5-5-4-4-0-||
Gb|--------------------------------------------||
Db|--------------------------------------------||
Ab|--------------------------------------------||
Eb|--------------------------------------------||

Eb|---------------------------------------5-5-5-4-4-4-7-7-7-7-7-7--||
Bb|-0-0h5h7-0h5h7-0h5h7-0h5h7-0h5h7-0h5h7-5-5-5-5-5-5-5-5-5-5-5-5--||
Gb|----------------------------------------------------------------||
Db|----------------------------------------------------------------||
Ab|----------------------------------------------------------------||
Eb|----------------------------------------------------------------||

Eb|-----------------------------0-0-0--------------||
Bb|-5-5-7p5--4-4-4----7p5--4-4--0-0-0--4-4-4-4--7--||
Gb|------------------------------------4-4-4-4-----||
Db|------------------------------------------------||
Ab|------------------------------------------------||
Eb|------------------------------------------------||

Eb|-0-7-0-0-5-0-0-4-0-7-0-0-5-0-0-4-0-7-0-0-5-0-0-4-0-4h5p4-0-0-0--||
Bb|---------------------------------------------------------7-7-7--||
Gb|----------------------------------------------------------------||
Db|----------------------------------------------------------------||
Ab|----------------------------------------------------------------||
Eb|----------------------------------------------------------------||
 




-INTRO[x3]-
-VERSUS RIFF1[x3]-
-VERSUS RIFF2-
-CHORUS[x2]
-VERSUS RIFF1[x3]-
-VERSUS RIFF2-
-CHORUS[x2]-
-BRIDGE[x4]-
-CHORUS[CLEANx2]-
-CHORUS[x4]-
Comments