Rise Against - Paper Wings Chords & Tabs

 

Paper Wings Chords & Tabs

Rise Against Chords & Tabs

Version: 1 Type: Bass Tab 0 ratings
1 star 2 stars 3 stars 4 stars 5 stars
comments

Paper Wings Bass Tab

Title:  Paper Wings
Artist:  Rise Against
Tabbed by:  Blake Rakoczi
E-mail:  Blake@sailormoonfan.com

Tuning:  Eb Standard


Intro - Note:  Wait for the guitar to play its riff once.
Gb|---------------------------------------------------------------------|
Db|---------------------------------------------------------------------|
Ab|-7-7-7-7-7-7-7-7--6-6-6-6----------4-4-4-4-4-4-4-4--0-0-0-0-0-0-0-0--| x2
Eb|--------------------------4-4-4-4------------------------------------|

First Verse
Gb|---------------------------------------------------------------------|
Db|------------------------------------------------------------7-6-4-6--|
Ab|-4-4--------------2-2-2/4-0-0-0-0--4-4--------------2-2-2/4----------| x1
Eb|---------0-0-0-0---------------------------0-0-0-0-------------------|

Gb|-------------------------------------------------------------------|
Db|-------------------------------------------------------------------|
Ab|-4-4--------------2-2-2/4-0-0-0-0--4-4-----------------------------| x1
Eb|---------0-0-0-0---------------------------0-0-0-0-----------------|

Pre-Chorus
Gb|---------------------------------------------------------------------|
Db|---------------------------------------------------------------------|
Ab|-2-2-2-2-2-2------0-0-0-0-0-0-0-0--2-2-2-2-2-2------0-0-0-0-2-2-2-2--| x1
Eb|-------------4-4-------------------------------4-4-------------------|

Chorus
Gb|---------------------------------------------------------------------|
Db|---------------------------------------------------------------------|
Ab|-7-7-7-7-7-7-7-7--6-6-6-6----------4-4-4-4-4-4-4-4--0-0-0-0-0-0-0-0--| x2
Eb|--------------------------4-4-4-4------------------------------------|

Second Verse
Gb|---------------------------------------------------------------------|
Db|------------------------------------------------------------7-6-4-6--|
Ab|-4-4--------------2-2-2/4-0-0-0-0--4-4--------------2-2-2/4----------| x1
Eb|---------0-0-0-0---------------------------0-0-0-0-------------------|

Gb|-------------------------------------------------------------------|
Db|-------------------------------------------------------------------|
Ab|-4-4--------------2-2-2/4-0-0-0-0--4-4-----------------------------| x1
Eb|---------0-0-0-0---------------------------0-0-0-0-----------------|
[ Tab from: http://www.guitartabs.cc/tabs/r/rise_against/paper_wings_btab.html ]
Pre-Chorus
Gb|---------------------------------------------------------------------|
Db|---------------------------------------------------------------------|
Ab|-2-2-2-2-2-2------0-0-0-0-0-0-0-0--2-2-2-2-2-2------0-0-0-0-2-2-2-2--| x1
Eb|-------------4-4-------------------------------4-4-------------------|

Chorus
Gb|---------------------------------------------------------------------|
Db|---------------------------------------------------------------------|
Ab|-7-7-7-7-7-7-7-7--6-6-6-6----------4-4-4-4-4-4-4-4--0-0-0-0-0-0-0-0--| x2
Eb|--------------------------4-4-4-4------------------------------------|

Bridge
Gb|-------------------------------------------------------------------|
Db|-------------------------------------------------------------------|
Ab|-------------------------------------------------------------------| x1
Eb|-0~~~~~~~~~~~~~~---------------------------------------------------|

Gb|-------------------------------------------------------------------|
Db|-------------------------------------------------------------------|
Ab|---------2-2-2----0-0-0-0-2-2-0------------------------------------| x3
Eb|-0-0-0-0-------4---------------42----------------------------------|

Gb|-------------------------------------------------------------------|
Db|-------------------------------------------------------------------|
Ab|---------2-2-2----0-0-0-0-0-0-0----2-2-2-2-2-2-2-2-----------------| x1
Eb|-0-0-0-0-------4----------------4----------------------------------|

Gb|-------------------------------------------------------------------|
Db|-------------------------------------------------------------------|
Ab|-------------------------------------------------------------------| x1
Eb|-0~~~~~~~~~~~~~~---------------------------------------------------|

Note:  Wait for guitar to play its riff once.
Gb|---------------------------------------------------------------------|
Db|---------------------------------------------------------------------|
Ab|----------------------------------------------------0-0-0-0-0-0-0-0--| x1
Eb|---------------------------------------------------------------------|

Chorus
Gb|---------------------------------------------------------------------|
Db|---------------------------------------------------------------------|
Ab|-7-7-7-7-7-7-7-7--6-6-6-6----------4-4-4-4-4-4-4-4--0-0-0-0-0-0-0-0--| x4
Eb|--------------------------4-4-4-4------------------------------------|

End On
Gb|-------------------------------------------------------------------|
Db|-------------------------------------------------------------------|
Ab|-------------------------------------------------------------------| x1
Eb|-0~~~~~~~~~~~~~~---------------------------------------------------|
Comments