Rise Against - My Life Inside Your Heart Chords & Tabs

 

My Life Inside Your Heart Chords & Tabs

Rise Against Chords & Tabs

Version: 1 Type: Bass Tab 0 ratings
1 star 2 stars 3 stars 4 stars 5 stars
comments

My Life Inside Your Heart Bass Tab

   
Band- Rise Against
Song- My Life Inside Your Heart

Standard Tuning.

~ = let ring.

  Intro
G: -----------------------------------|
D: 77777777-5555555-33333333-44444444-|
A: -----------------------------------|
E: -----------------------------------|

G: -----------------------------------|
D: 77777777-5555555-33333333-44444444-|
A: -----------------------------------|
E: -----------------------------------|

G: -----------------------------------|
D: 77777777-5555555-33333333-44444444-|
A: -----------------------------------|
E: -----------------------------------|

G: -----------------------------------|
D: 77777777-5555555-33333333-44444444-|
A: -----------------------------------|
E: -----------------------------------|

G: --
D: --
A: 5~
E: --

  Verse                                        10\'s all throughout verses.
G: ---------------------------------------------------------|
D: ------------2-------------4-------------6----------------|
A: --------2424-4--------4646-6--------6868-8--------108106-|
E: 33333333------55555555------77777777------88888888-------|

G: ---------------------------------------------------------|
D: ------------2-------------4-------------6----------------|
A: --------2424-4--------4646-6--------6868-8--------108106-|
E: 33333333------55555555------77777777------88888888-------|

  Pre-Chorus
        16                 16
G: ---------------------------------|
D: ---------------------------------|
A: 3333333333333333-5555555555555555
E: ---------------------------------

  Chorus
G: ------------------------------|
D: ------------------------------|
A: 3-------------3-4444-5555-----|
E: -3-5555-6-7777-----------5555-|

G: ------------------------------|
D: ------------------------------|
A: 3-------------3-4444-5555-----|
E: -3-5555-6-7777-----------5555-|

G: ------------------------------|
D: ------------------------------|
A: 3-------------3-4444-5555-----|
E: -3-5555-6-7777-----------5555-|

G: ------------------------------|
D: ------------------------------|
A: 3-------------3-4444-5555-----|
E: -3-5555-6-7777-----------5555-|

[ Tab from: http://www.guitartabs.cc/tabs/r/rise_against/my_life_inside_your_heart_btab.html ]
    Verse                                        10\'s all throughout verses.
G: ---------------------------------------------------------|
D: ------------2-------------4-------------6----------------|
A: --------2424-4--------4646-6--------6868-8--------108106-|
E: 33333333------55555555------77777777------88888888-------|

G: ---------------------------------------------------------|
D: ------------2-------------4-------------6----------------|
A: --------2424-4--------4646-6--------6868-8--------108106-|
E: 33333333------55555555------77777777------88888888-------|

  Pre-Chorus
        16                 16
G: ---------------------------------|
D: ---------------------------------|
A: 3333333333333333-5555555555555555
E: ---------------------------------

  Chorus
G: ------------------------------|
D: ------------------------------|
A: 3-------------3-4444-5555-----|
E: -3-5555-6-7777-----------5555-|

G: ------------------------------|
D: ------------------------------|
A: 3-------------3-4444-5555-----|
E: -3-5555-6-7777-----------5555-|

G: ------------------------------|
D: ------------------------------|
A: 3-------------3-4444-5555-----|
E: -3-5555-6-7777-----------5555-|

G: ------------------------------|
D: ------------------------------|
A: 3-------------3-4444-5555-----|
E: -3-5555-6-7777-----------5555-|

   take a pause for a little bit.

  Bridge
G: -----------------------------------|
D: -----------------------------------|
A: -----------------------------------|
E: 33333333-5555555-77777777-88888888-|

G: -----------------------------------|
D: -----------------------------------|
A: -----------------------------------|
E: 33333333-5555555-77777777-88888888-|

G: -----------------------------------|
D: -----------------------------------|
A: -----------------------------------|
E: 33333333-5555555-77777777-88888888-|

G: -----------------------------------|
D: -----------------------------------|
A: -----------------------------------|
E: 33333333-5555555-77777777-88888888-|

  Chorus
G: ------------------------------|
D: ------------------------------|
A: 3-------------3-4444-5555-----|
E: -3-5555-6-7777-----------5555-|

G: ------------------------------|
D: ------------------------------|
A: 3-------------3-4444-5555-----|
E: -3-5555-6-7777-----------5555-|

G: ------------------------------|
D: ------------------------------|
A: 3-------------3-4444-5555-----|
E: -3-5555-6-7777-----------5555-|

G: ------------------------------|
D: ------------------------------|
A: 3-------------3-4444-5555-----|
E: -3-5555-6-7777-----------5555-|
Comments