Rise Against - Like The Angel Chords & Tabs

 

Like The Angel Chords & Tabs

Rise Against Chords & Tabs

Version: 7 Type: Tab 0 ratings
1 star 2 stars 3 stars 4 stars 5 stars
comments

Like The Angel Tab

^ : bend
v : release
/ : slide up

e|-----------------|---------------------------------------------|
B|-----------------|------99-77-66-------------------------------|
G|------6-8^v-6----|------------------6--6--6-8--5--5-5--5-6-6-5-|
D|----8---------8--|-8--8----------8-----------------------------|
A|-8---------------|---------------------------------------------|
E|-----------------|---------------------------------------------|

e|---------------------------------------------------------------|
B|--/11--11--11-9------------------------------------------------|
G|----------------11-10--10--10-11-11-10-------------------------|
D|---------------------------------------11--11--11-13--10--10-10|
A|---------------------------------------------------------------|
E|---------------------------------------------------------------|
[ Tab from: http://www.guitartabs.cc/tabs/r/rise_against/like_the_angel_tab_ver_7.html ]
e|---------------|
B|---------------|
G|---------------|
D|--10-11-13-11--|
A|---------------|
E|---------------|

e|---------------|-------------8-9-11--11--11-9-8-6-|
B|---------------|-9--9-9--7-9----------------------|
G|-------6-8^v-6-|----------------------------------|
D|-----8---------|----------------------------------|
A|--8------------|----------------------------------|
E|---------------|----------------------------------|

e|-6--6-6-8-8-6-------------|-----------------|-6-----8------9----|
B|--------------6--6--6-7-6-|-------------6-7-|-9^----11^----12^--|
G|--------------------------|-6--6-6--6-8-----|-------------------|
D|--------------------------|-----------------|-------------------|
A|--------------------------|-----------------|-------------------|
E|--------------------------|-----------------|-------------------|
Comments