Rise Against - Life Less Frightening Chords & Tabs

 

Life Less Frightening Chords & Tabs

Rise Against Chords & Tabs

Version: 2 Type: Tab 0 ratings
1 star 2 stars 3 stars 4 stars 5 stars
comments

Life Less Frightening Tab

   
The verybest Song of Rise Against!!!
Tune half step down!

V1. = Verse 1
V2. = Verse 2
x   = pm

Intro
2. Guitar ?x (listen the Song)
e|------------------|
H|-6565656565656565-|
G|-5555555555555555-|
D|------------------|
A|------------------|
E|------------------|

1. Guitar
e|-----------------|
H|-----------------|
G|-99997910910-12--|
D|-----------------|
A|-7777578-7-8-10--|
E|-----------------|

2. Guitar
e|------------------|
H|------------------|
G|------------------|
D|-7777777733335555-|
A|-7777777733335555-|
E|-5555555511113333-|

1. Guitar
e|--------------------------------------------|
H|--------------------------------------------|
G|-9-10-12-5-77---9-10-12-5-73--7-10-12-5-77--|
D|--------------------------------------------|
A|-7-8--10-3-55---7-8--10-3-51--7-8--10-3-55--|
E|--------------------------------------------|

e|------------------|-----|
H|------------------|-----|
G|-99999791091012---|-----|
D|------------------|-7---|
A|-77777578-7-810---|-7---|
E|------------------|-5---|

Verse
Only Bass      V1. "Suffering for..."
               V2  "Hang me out..." 
1. + 2. Guitar V1. "...negative for Happyness"
               V2. "...doing nothing I still run" 
e|----------------------|
H|----------------------|
G|------------9-10-12---|
D|--Pickslide-----------|
A|------------7-8--10---|
E|----------------------|
                              
 
1. Guitar V1. = "Flat line, no puls, but eyes open..." 
          V2. = "Time again i have found myself stuttering..."
e|----------------------------------|
H|----------------------------------|
G|---------55544-----------55547777-|
D|-77757775-----55577757775---------|
A|----------------------------------|
E|----------------------------------|
  xxxxxxxxxxxxxxxxxxxxxxxxxxxxxxxxx 

                     (Why are we losing)) 
                     1. + 2. Guitar  
e|--------------------------------------------|
H|--------------------------------------------|
G|---------55544-----999999991010101012121212-|
D|-77757775-----5555-999999991010101012121212-|
A|-------------------77777777-8-8-8-810101010-|
E|--------------------------------------------|
  xxxxxxxxxxxxxxxxxx 

"I dont ask for much truth be told i settel for"
Chorus
e|----------------------------------|
H|----------------------------------|
G|-----------------55555555---------|
D|-77777777333333335555555555555555-|
A|-77777777333333333333333355555555-|
E|-5555555511111111--------33333333-|

"a life less frightening" (2x)
e|------------------------------------|
H|------------------------------------|
G|-----------------55555555-9-7-10-9--|
D|-777777773333333333333333-----------|
A|-777777773333333333333333-7-5-8--7--|
E|-5555555511111111-------------------|
[ Tab from: http://www.guitartabs.cc/tabs/r/rise_against/life_less_frightening_tab_ver_2.html ]
Bridge Part1 (Is there a God...)
e|--------------------------------------------------------|
H|--------------------------------------------------------|
G|--------------------------------------------------------|
D|-777777779-9-9-9-10-10-10-10777777779-9-9-9-10-10-10-10-|
A|-77777777-------------------77777777--------------------|
E|-555555557-7-7-7-8--8--8--8-555555557-7-7-7-8--8--8--8--|

e|-------------------------------------------------------------------------|
H|-------------------------------------------------------------------------|
G|-10-10-10-10-10-10-10-10-9-9-9-9-9-9-9-9-7-7-7-7-7-7-7-7-7-7-7-7-7-7-7-7-|
D|-------------------------------------------------------------------------|
A|-8--8--8--8--8--8--8--8--7-7-7-7-7-7-7-7-5-5-5-5-5-5-5-5-5-5-5-5-5-5-5-5-|
E|-------------------------------------------------------------------------|

Bridge Part2 (So blow a Kiss...)
e|--------------------------------------------|
H|--------------------------------------------|
H|--------------------------------------------|
D|-7--109-77--10-9-10-12--10-9-10-12--10-9-10-|
A|--------------------------------------------|
E|-5--8-7-55--8--7-8--10--8--7-8--10--8--7-8--|

e|-------------------------------------------------------------------|
H|-------------------------------------------------------------------|
G|--------------------------------------10-10-10-10-10-10-10-10-10---|
D|-7---10-9-7-7---10-9-10-12---10-9--10-10-10-10-10-10-10-10-10-10---|
A|--------------------------------------8--8--8--8--8--8--8--8--8----|
E|-5---8--7-5-5---8--7-8--10---8--7--8--8--8--8--8--8--8--8--8--8----|

Last Chorus
e|------------------------------------|-----|
H|------------------------------------|-----|
G|---------9-7-10-7-55555555-9-7-10-9-|-7---|
D|-77777777---------55555555----------|-7---|
A|-777777777-5-8--7-33333333-7-5-8--7-|-5---|

End on
e|---|
H|---|
G|---|
D|-7-|
A|-7-|
E|-5-|

Lyrics

Suffering from something we're not sure of
In a world there is no cure for
These lives we live test negative for happiness
Flat line, no pulse, but eyes open
Single file like soldiers on a mission
If theres no war outside our heads
Why are we losing?

I don't ask for much
The truth betold i'd settle
for a life less frightening, a life less frightening
I don't ask for much
The truth betold i'd settle
for a life less frightening, a life less frightening

Hang me out to dry Im soaking
With the sense of knowing
Whats gone wrong but doing nothing I still run
Time again I have found myself stuttering
Foundations pulled out from under me
This breath is wasted on them all
Will someone answer me?

I don't ask for much
The truth betold i'd settle
for a life less frightening, a life less frightening
I don't ask for much
The truth betold i'd settle
for a life less frightening, a life less frightening

Is there a God tonight?
up in the sky or is it empty just like me (Just like me)
A place where we can hide out from the night
Where you are all I need (Where you are all I need)
So blow a kiss Goodbye and close your eyes
Tell me what you see (Tell me what you see)
A life I sit inside this dream of mine
Where you are all I see

I don't ask for much
The truth betold i'd settle
for a life less frightening, a life less frightening
I don't ask for much
The truth betold i'd settle
for a life less frightening, a life less frightening

Thats it. Please rate!!! Thx
Comments