Rise Against - Last Drop Chords & Tabs

 

Last Drop Chords & Tabs

Rise Against Chords & Tabs

Version: 1 Type: Bass Tab 0 ratings
1 star 2 stars 3 stars 4 stars 5 stars
comments

Last Drop Bass Tab

   
Band- Rise Against
Song- The Last Drop

TUNING: Eb Ab Db Gb Half Step Down

Intro/Chorus
G---------------|
D---------------|
A-0>-3>---------| 4x
E-------3>-1>---|

Verse 1
G----------------------------------------------------------|
D----------------------------------------------------------|
A-0>-----0>-333-0>-----8>-333--0>-----0>-333-0>--------3---|
E----333-----------333------------333-----------333-1>-----|

G----------------------------------------------------------|
D----------------------------------------------------------|
A-0>-----0>-333-0>-----8>-333--0>-----0>-333-0>------------|
E----333-----------333------------333-----------33-1>-3>---|

Intro/Chorus 4x
[ Tab from: http://www.guitartabs.cc/tabs/r/rise_against/last_drop_btab.html ]
Verse 2
G-------------------------------------------------------------|
D-------------------------------------------------------------|
A-0>-----0>-333-0>-----8>-333--0>-----0>-333-0>-----8>-775----|
E----333-----------333------------333-----------333-------8---|

2nd line of Verse 1
Intro/Chorus 4x

Bridge
G-----------------------------------------|
D-----------------------------------------|
A-------------------------------------0---|
E-00-0-00--00-0-00--00-0-00--00-0-00------|

G--------------------|
D--------------------|
A---223355----3333---|
E-33------1111-------|

                                             2x
G------------------------------------------------|--------|
D------------------------------------------------|--------|
A-0>-----3>-0>--------0>-----3>---223355----3333-|-0----0-|
E-----1>--------1>-3>-----1>----33------1111-----|--------|

Intro/Chorus 4x

Outro
G-------|
D-------|
A---0---|
E-3-----|
Comments