Rise Against - Join The Ranks Chords & Tabs

 

Join The Ranks Chords & Tabs

Rise Against Chords & Tabs

Version: 1 Type: Tab 0 ratings
1 star 2 stars 3 stars 4 stars 5 stars
comments

Join The Ranks Tab

   
-------------------------------------------------------------------------------
			  JOIN THE RANKS - Rise Against
-------------------------------------------------------------------------------

Tabbed by: strungout777
Email: manuel_ramones4life@gmx.at



Verse:
e|---------------------------------------------------------------------------| 
B|---------------------------------------------------------------------------| 
G|-8-8--6--8-8--6--8-8--6-------3--4-4-4--6-6-6--8-8-8-8---------------------| 
D|-8-8--6--8-8--6--8-8--6--4-4--3--4-4-4--6-6-6--8-8-8-8---------------------|x2 
A|-6-6--4--6-6--4--6-6--4--4-4--1--2-2-2--4-4-4--6-6-6-6---------------------| 
E|-------------------------2-2-----------------------------------------------| 

Chorus:
e|---------------------------------------------------------------------------| 
B|---------------------------------------------------------------------------| 
G|-4-4-4-4-4-4--8-8-8-6-6-6--4-4-4-4-4-4-------------------------------------| 
D|-4-4-4-4-4-4--8-8-8-6-6-6--4-4-4-4-4-4--6-6-6-8-8-8------------------------| 
A|-2-2-2-2-2-2--6-6-6-4-4-4--2-2-2-2-2-2--6-6-6-8-8-8------------------------| 
E|----------------------------------------4-4-4-6-6-6------------------------| 

e|---------------------------------------------------------------------------| 
B|---------------------------------------------------------------------------| 
G|-4-4-4-4-4-4--8-8-8-6-6-6--------------------------------------------------| 
D|-4-4-4-4-4-4--8-8-8-6-6-6--4-4-4-4-4-4--8-8-8-8-8-8------------------------| 
A|-2-2-2-2-2-2--6-6-6-4-4-4--4-4-4-4-4-4--8-8-8-8-8-8------------------------| 
E|---------------------------2-2-2-2-2-2--6-6-6-6-6-6------------------------| 

Verse: 
e|---------------------------------------------------------------------------| 
B|---------------------------------------------------------------------------| 
G|-8-8--6--8-8--6--8-8--6-------3--4-4-4--6-6-6--8-8-8-8---------------------| 
D|-8-8--6--8-8--6--8-8--6--4-4--3--4-4-4--6-6-6--8-8-8-8---------------------|x2 
A|-6-6--4--6-6--4--6-6--4--4-4--1--2-2-2--4-4-4--6-6-6-6---------------------| 
E|-------------------------2-2-----------------------------------------------|

Chorus:
e|---------------------------------------------------------------------------| 
B|---------------------------------------------------------------------------| 
G|-4-4-4-4-4-4--8-8-8-6-6-6--4-4-4-4-4-4-------------------------------------| 
D|-4-4-4-4-4-4--8-8-8-6-6-6--4-4-4-4-4-4--6-6-6-8-8-8------------------------| 
A|-2-2-2-2-2-2--6-6-6-4-4-4--2-2-2-2-2-2--6-6-6-8-8-8------------------------| 
E|----------------------------------------4-4-4-6-6-6------------------------| 

e|---------------------------------------------------------------------------| 
B|---------------------------------------------------------------------------| 
G|-4-4-4-4-4-4--8-8-8-6-6-6------------------------------8~------------------| 
D|-2-2-2-2-2-2--6-6-6-4-4-4--4-4-4-4-4-4--8-8-8-8-8-8----x-------------------| 
A|-2-2-2-2-2-2--6-6-6-4-4-4--x-x-x-x-x-x--x-x-x-x-x-x----6~------------------| 
E|---------------------------2-2-2-2-2-2--6-6-6-6-6-6------------------------| 
[ Tab from: http://www.guitartabs.cc/tabs/r/rise_against/join_the_ranks_tab.html ]
Bridge 
e|---------------------------------------------------------------------------| 
B|---------------------------------------------------------------------------| 
G|-11-10-6-8~--6/8--11-10-8-11-10-8--11-11-11-13-13-13-15-15-15-15-15-15-----| 
D|--x--x-x-x~--x/x---x--x-x--x--x-x---x--x--x--x--x--x--x--x--x--x--x--x-----| 
A|--9--8-4-6~--4/6---9--8-6--9--8-6---9--9--9-11-11-11-13-13-13-13-13-13-----| 
E|---------------------------------------------------------------------------| 

Chorus
e|---------------------------------------------------------------------------| 
B|---------------------------------------------------------------------------| 
G|-4-4-4-4-4-4--8-8-8-6-6-6--4-4-4-4-4-4-------------------------------------| 
D|-4-4-4-4-4-4--8-8-8-6-6-6--4-4-4-4-4-4--6-6-6-8-8-8------------------------| 
A|-2-2-2-2-2-2--6-6-6-4-4-4--2-2-2-2-2-2--6-6-6-8-8-8------------------------| 
E|----------------------------------------4-4-4-6-6-6------------------------| 

e|---------------------------------------------------------------------------| 
B|---------------------------------------------------------------------------| 
G|-4-4-4-4-4-4--8-8-8-6-6-6--------------------------------------------------| 
D|-4-4-4-4-4-4--8-8-8-6-6-6--4-4-4-4-4-4--8-8-8-8-8-8------------------------| 
A|-2-2-2-2-2-2--6-6-6-4-4-4--4-4-4-4-4-4--8-8-8-8-8-8------------------------| 
E|---------------------------2-2-2-2-2-2--6-6-6-6-6-6------------------------| 

e|---------------------------------------------------------------------------| 
B|---------------------------------------------------------------------------| 
G|-8-8--6--8-8--6--8-8--6--8-------------------------------------------------| 
D|-8-8--6--8-8--6--8-8--6--8-------------------------------------------------| 
A|-6-6--4--6-6--4--6-6--4--6-------------------------------------------------| 
E|---------------------------------------------------------------------------| 

Solo:
e|---------------------------------------14p12p11-14p12p11-14p12p11-14p12p11-|
B|-10b11-10b11-10b11-10b12-14-12-11-11-11------------------------------------|
G|---------------------------------------------------------------------------|
D|---------------------------------------------------------------------------|
A|---------------------------------------------------------------------------|
E|---------------------------------------------------------------------------|

e|-14-16-13-13-13-18-18-16-14-16-14---------14-16-14-13-16p1418p1416p1418p14-
B|----------------------------------18-16-18---------------------------------|
G|---------------------------------------------------------------------------|
D|---------------------------------------------------------------------------|
A|---------------------------------------------------------------------------|
E|---------------------------------------------------------------------------|

e|-16p1418p1416p1418p1416p1318p1316p1318p1316p1318p1316p1318p13--------------|
B|--------------------------------------------------------------15b16-15b16--|
G|---------------------------------------------------------------------------|
D|---------------------------------------------------------------------------|
A|---------------------------------------------------------------------------|
E|---------------------------------------------------------------------------|

e|-------------------17b18-17b18-16-17b18~-----------------------------------|
B|-14-15b16-15b16-14---------------------------------------------------------|
G|---------------------------------------------------------------------------|
D|---------------------------------------------------------------------------|
A|---------------------------------------------------------------------------|
E|---------------------------------------------------------------------------|


| /  slide up
| \  slide down
| h  hammer-on
| p  pull-off
| ~  vibrato
| +  harmonic
| x  Mute note
===============================================================================
Comments