Rise Against - Halfway There Chords & Tabs

 

Halfway There Chords & Tabs

Rise Against Chords & Tabs

Version: 1 Type: Tab 0 ratings
1 star 2 stars 3 stars 4 stars 5 stars
comments

Halfway There Tab

Halway there by Rise Against
I'm not to sure bout the intro but its neally there...i think

Standed tuning

INTRO

Guitar 1
e|--------------------------------------------------|
B|--------------------------------------------------|
G|--13-13-/-8-\-11-11-/-8-\-13-\-15-\-16-/-8---8----|
D|--------------------------------------------------|
A|--------------------------------------------------|
E|--------------------------------------------------|

Guitar 2
e|------------------------------------------|
B|------------------------------------------|
G|----m-m---m-m---m-m---m-m-----------------|
D|--6-6-6-6-6-6-4-x-x-1-x-x-4-4-4-4-(x7)----|
A|--4-4-4-4-4-4-4-x-x-2-x-x-2-2-2-2---------|
E|------------------------------------------|

e|---------------------|
B|---------------------|
G|----m-m---m-m--------|
D|--6-6-6-6-6-6-4~~----|
A|--4-4-4-4-4-4-2~~----|
E|---------------------|

RIFF 1

Both Guitars
e|--------------------------------------|
B|--------------------------------------|
G|--------------------------------------|
D|--6-x-9-x-8-x-4-x-11-11-11-11-(x3)----|
A|--4-x-7-x-6-x-2-x-9--9--9--9----------|
E|--------------------------------------|

e|-----------------------------|
B|-----------------------------|
G|----------9-8-8-9-8-8-9-8----|
D|--9-9-9-9-9-9-9-9-9-9-9-9----|
A|--7-7-7-7--------------------|
E|-----------------------------|

VERSE
[ Tab from: http://www.guitartabs.cc/tabs/r/rise_against/halfway_there_tab.html ]
e|---------------------------------------------------------------------|
B|---------------------------------------------------------------------|
G|----m-m---m-m---m---------m-m---m-m---m------------------------------|
D|--6-6-6-6-6-6-6-6--(x4)-2-2-2-2-2-2-2-2-(x2)---m-m---m-m---m---------|
A|--4-4-4-4-4-4-4-4-------0-0-0-0-0-0-0-0------4-4-4-4-4-4-4-4-(x2)----|
E|---------------------------------------------2-2-2-2-2-2-2-2---------|

CHORUS

e|----------------------------------------------------------------------------------|
B|----------------------------------------------------------------------------------|
G|--9--9-9-x-8--8-8-8-8-11--11-11-x-9--9-9-9-9-11--11-11-x-13--13-13-13-13-16-16----|
D|--x--x-x-x-x--x-x-x-x-x---x--x--x-x--x-x-x-x-x---x--x--x-x---x--x--x--x--x--x-----|
A|--7--7-7-x-6--6-6-6-6-9---9--9--x-7--7-7-7-7-9---9--9--x-11--11-11-11-11-14-14----|
E|----------------------------------------------------------------------------------|

RIFF 2

e|------------|
B|------------|
G|--13--13----|
D|--x---x-----|
A|--11--11----|
E|------------|

e|------------------------------------------------------------------------|
B|------------------------------------------------------------------------|
G|--9--8--11--9--13--16-14------9--8--11-9--13--13--16-14--9--8--11--9----|
D|--x--x--x---x--x---x--x--(x2)-x--x--x--x--x---x---x--x---x--x--x---x----|
A|--7--6--9---7--11--14-12------7--6--9--7--11--11--14-12--7--6--9---7----|
E|------------------------------------------------------------------------|


END

Guitar 1
e|---------|
B|---------|
G|--6~~----|
D|--6~~----|
A|--4~~----|
E|---------|

Guitar 2
e|---------|
B|---------|
G|--11~~---|
D|--x~~----|
A|--9~~----|
E|---------|

INTRO
RIFF 1 x2
VERSE x4
CHORUS x2
RIFF 1 x2
VERSE x2
CHORUS x2
RIFF 2
RIFF 1 x2
END
Comments