Rise Against - Halfway There Chords & Tabs

 

Halfway There Chords & Tabs

Rise Against Chords & Tabs

Version: 1 Type: Bass Tab 0 ratings
1 star 2 stars 3 stars 4 stars 5 stars
comments

Halfway There Bass Tab

   
Band- Rise Against
Song- Halfway There

Tuning: Standard (E A D G)

Intro (played softly)
G------------------------------|
D-----7>-4>--------------------|
A-4>>-------4>>----------------|
E---------------5>-22222222-2r-|

Interlude
G----------------------------------------------------|
D----------------------------------------------------|
A-44-77-66-22222-44-77-66-22222-44-77-66-22222-0>-2>-| 2x
E----------------------------------------------------|

Verse
G-------------------------------------|
D-------------------------------------|
A-4>>-------4>44-66-77-66-44----------|
E-----5>-2>------------------77-5>-2>-|
[ Tab from: http://www.guitartabs.cc/tabs/r/rise_against/halfway_there_btab.html ]
G-------------------------------44-------|
D-------------66-77-66-44-66-77----------|
A-4>>------4>----------------------------|
E-----5>-2>------------------------5>-2>-|

Chorus
G-------------|
D-------------|
A-4>----------| 2x
E----0>-2>-5>-|

Play:
Interlude x2

Verse
G-------------------------------44-------|
D-------------66-77-66-44-66-77----------|
A-4>>------4>----------------------------|
E-----5>-2>------------------------5>-2>-|

Play:
Chorus

Interlude 2
G------------------------------|
D------------------------------|
A-4---4r--4---4r-7-6----7-6-9r-| 2x
E---2-------2--------7r--------|

G------------------------------|
D------------------------------|
A-4---4>--4---4>-7-6----7-6-9>-| 2x
E---2-------2--------7>--------|

Play:
Interlude 2x

End on A-4-
Comments