Rise Against - Give It All Chords & Tabs

 

Give It All Chords & Tabs

Rise Against Chords & Tabs

Version: 4 Type: Bass Tab 0 ratings
1 star 2 stars 3 stars 4 stars 5 stars
comments

Give It All Bass Tab

Rise against tabbed by tonydeafmessiah

This is the real thing not the rubbish that the first two guys did. No offense....

verse 1

(x2)

g---------------------------------------------------------------------------|
d---------------------------------------------------------------------------|
a------------------------5-------------------5-5-7-7------------------------|
e------22----22----22------------22----22-----------------------------------|

(x2)

g---------------------------------------------------------------------------|
d---------------------------------------------------------------------------|
a-------------------------------5--------------------------5-5-7-7----------|
e------2---2-0-2---2-0-2---2----------2---2-0-2--2-0------------------------|

Chorus 1

(x2)

g---------------------------------------------------------------------------|
d-----------------------------6--7--9-----------7--6--7---------------------|
a-------------4--5--6-7-7-7-7---------9-9-9-9------------5-5-5-5-7-5-4-5----|
e----5-5-5-5----------------------------------------------------------------|


Verse 2

(x2)

g---------------------------------------------------------------------------|
d---------------------------------------------------------------------------|
a--------------------------5-----------------5-5-7-7------------------------|
e------22----22----22------------22----22-----------------------------------|

(x2)

g---------------------------------------------------------------------------|
d---------------------------------------------------------------------------|
a--------------------------5--------------------5-5-7-7---------------------|
e------2---202---202--2----------2---202--20--------------------------------|


Chorus 1
[ Tab from: http://www.guitartabs.cc/tabs/r/rise_against/give_it_all_btab_ver_4.html ]
g---------------------------------------------------------------------------|
d-----------------------------6--7--9-----------7--6--7---------------------|
a-------------4--5--6-7-7-7-7---------9-9-9-9------------5-5-5-5-7-5-4-5----|
e----5-5-5-5----------------------------------------------------------------|


g---------------------------------------------------------------------------|
d-----------------------------6--7--9-----------7--6--7---------------------|
a-------------4--5--6-7-7-7-7---------9-9-9-9------------5-5-5-5------------|
e----5-5-5-5----------------------------------------------------------------|


Bridge

g--------------|
d--------------|
a--------------|
e------5-4-----|

(x3)

g---------------------------------------------------------------------------|
d---------------------------------------------------------------------------|
a-------------------55555555------------------------------------------------|
e------222222222---------------00000000----5555---4444----------------------|

     "Breathe!! The air we give!......."


g---------------------------------------------------------------------------|
d---------------------------------------------------------------------------|
a-------------------55555555------------------------------------------------|
e------222222222---------------0000000000-----------------------------------|

    "....I'm coming home tonight!  Home tonight!......"


Chorus 3

(x2)

g---------------------------------------------------------------------------|
d-----------------------------6--7--9-----------7--6--7---------------------|
a-------------4--5--6-7-7-7-7---------9-9-9-9------------5-5-5-5-7-5-4-5----|
e----5-5-5-5----------------------------------------------------------------|

(x2)

g---------------------------------------------------------------------------|
d---------------------------------------------------------------------------|
a-----------------77777777-----------55555555-------------------------------|
e--------55555555-----------33333333----------------------------------------|

    "today i offer up myself to this............"


This is my first tab and i hope people find it helpful. if there's any mistakes please 
me know about it tony_deaf_messiah@hotmail.co.uk
Comments