Rise Against - Gethsemane Chords & Tabs

 

Gethsemane Chords & Tabs

Rise Against Chords & Tabs

Version: 1 Type: Tab 0 ratings
1 star 2 stars 3 stars 4 stars 5 stars
comments

Gethsemane Tab

Tabbed By: Paul
Email: delesdog@netscape.net

Rise Against - Gethsemane

Drop D Tuning

Intro (x2)/Verse (x2)

e|------------------------------------------------------------------------|
B|------------------------------------------------------------------------|
G|------------------------------------------------------------------------|
D|------------4444-3333--------66-44-33-44--------4444-3333-666666--------|
A|-----666666-----------444444-------------666666------------------444444-|
D|------------------------------------------------------------------------|
Verse: It was the perfect...  

Chorus

e|----------------------------------------------------------------------|
B|----------------------------------------------------------------------|
G|---------------66--88888888--------------------6-----8----------------|
D|--6666--22222--66--88888888--x3----6-----2-----6-----8----------------|
A|--6666--22222--44--66666666--------6-----2-----4-----6----------------|
D|--6666--22222----------------------6-----2----------------------------|
    Believe in me...                 So I'll give it...

Verse x 2
Chorus

Interlude
[ Tab from: http://www.guitartabs.cc/tabs/r/rise_against/gethsemane_tab.html ]
e|----------------------------------------------------------------------|
B|----------------------------------------------------------------------|
G|----------------------------4-----6-----88----------------------------|
D|-1-1-xxx-1-1-xxx-1-1-xxx----4-----6-----88---x3-----------------------|
A|-1-1-xxx-1-1-xxx-1-1-xxx----2-----4-----66----------------------------|
D|-1-1-xxx-1-1-xxx-1-1-xxx----------------------------------------------|
  (Screaming)

Chorus (only first part) x8

End
Guitar 1
e|----------------------------------------------------------------------|
B|----------------------------------------------------------------------|
G|----------------------------------------------------------------------|
D|1xx1xx1xx1xx1xx1xx4444-----------1------------------------------------|
A|1xx1xx1xx1xx1xx1xx4444-x4-end on 1------------------------------------|
D|1xx1xx1xx1xx1xx1xx4444-----------1------------------------------------|

Guitar 2
e|----------------------------------------------------------------------|
B|----------------------------------------------------------------------|
G|8xx8xx8xx8xx8xx8xx6666-----------8------------------------------------|
D|8xx8xx8xx8xx8xx8xx6666-x4 end on 8------------------------------------|
A|6xx6xx6xx6xx6xx6xx4444-----------6------------------------------------|
D|----------------------------------------------------------------------|


This is a sick song and I havn't seen anything about it anywhere except
on the unraveling cd. Please email me if you have anything to add, corrections or comments.
Comments