Rise Against - Get Over Yourself Chords & Tabs

 

Get Over Yourself Chords & Tabs

Rise Against Chords & Tabs

Version: 1 Type: Bass Tab 0 ratings
1 star 2 stars 3 stars 4 stars 5 stars
comments

Get Over Yourself Bass Tab

After Guitar Does Intro

|----------------
|----------------  x4
|44----------4~~~
|----55--44------

|----------------
|----------------  x4
|4444--------333-
|----55554444----

|----------------
|----------------  x2
|44440000--------
|----------55--44

|----------------
|----------------  x4
|----------------
|44-00-5-555-44--

|----------------
|----------------  x4
|44----------4~~~
|----55--44------

|----------------
|----------------  x4
|4444--------333-
|----55554444----
[ Tab from: http://www.guitartabs.cc/tabs/r/rise_against/get_over_yourself_btab.html ]
|----------------
|----------------  x2
|44440000--------
|----------55--44

|----------------
|----------------  x4
|----------------
|44-00-5-555-44--

**DURIN GUITAR SOLO**
|----------------
|----------------  x4
|44----------4~~~
|----55--44------

|----------------
|----------------  x4
|4444--------333-
|----55554444----

During Drum roll & Last End Of Guitar Solo
**Really Fast*

|-4-4-4-4-4-4-4-4-4-4-4-4
|------------------------  Till End of Guitar Solo
|2-2-2-2-2-2-2-2-2-2-2-2-
|------------------------

|----------------
|----------------  x4
|----------------
|44-00-5-555-44--

Fin.
Comments