Rise Against - First Drop Chords & Tabs

 

First Drop Chords & Tabs

Rise Against Chords & Tabs

Version: 1 Type: Tab 0 ratings
1 star 2 stars 3 stars 4 stars 5 stars
comments

First Drop Tab

   
The first tab worldwide of the first drop... :o)


Intro 4x

e |---------------------------------------------------------------------||
H |---------------------------------------------------------------------||
G |-2222-5555-----------------------------------------------------------||
D |-2222-5555-5555-3333-------------------------------------------------||
A |-0000-3333-5555-3333-------------------------------------------------||
E |-----------3333-1111-------------------------------------------------||

Leadpart
e |-----------------------------------------|----------|----------------||
H |-----------------------------------------|----------|----------------||
G |-9-9-9-9-9-14-14-14-14-14-10-10-10-10-10-|-10-12-10-|-17-------------||
D |-----------------------------------------|----------|----------------||
A |-7-7-7-7-7-12-12-12-12-12-8--8--8--8--8--|-8--10-8--|-15-------------||
E |-----------------------------------------|----------|----------------||          
Verse part 1 
e |-----------------------------|-----------|---------------------------||
H |-----------------------------|-----------|---------------------------||
G |-222222---222222555222222----|-101010555-|---------------------------||
D |-222222333222222555222222333-|-101010555-|-3333355555----------------||
A |-000000333000000333000000333-|-8-8-8-333-|-3333355555----------------||
E |-------555---------------555-|-----------|-1111133333----------------||
pm  xxxxxxxxxxxxxxxxxxxxxxxxxxx   xxxxxxxxx   xxxxxxxxxx

Verse part 2 2x
e |-----------------------------|-----------|---------------------------||
H |-----------------------------|-----------|---------------------------||
G |-222222---222222555222222----|-101010555-|---------------------------||
D |-222222333222222555222222333-|-101010555-|-3333355555----------------||
A |-000000333000000333000000333-|-8-8-8-333-|-3333355555----------------||
E |-------555---------------555-|-----------|-1111133333----------------||
                                               xxxx xxxx  
Chorus 4x
e |---------------------------------------------------------------------||
H |---------------------------------------------------------------------||
G |-2222-5555-----------------------------------------------------------||
D |-2222-5555-5555-3333-------------------------------------------------||
A |-0000-3333-5555-3333-------------------------------------------------||
E |-----------3333-1111-------------------------------------------------||
[ Tab from: http://www.guitartabs.cc/tabs/r/rise_against/first_drop_tab.html ]
Verse part 1 2x
e |-----------------------------|-----------|---------------------------||
H |-----------------------------|-----------|---------------------------||
G |-222222---222222555222222----|-101010555-|---------------------------||
D |-222222333222222555222222333-|-101010555-|-3333355555----------------||
A |-000000333000000333000000333-|-8-8-8-333-|-3333355555----------------||
E |-------555---------------555-|-----------|-1111133333----------------||
pm  xxxxxxxxxxxxxxxxxxxxxxxxxxx   xxxxxxxxx   xxxxxxxxxx

Verse part 2 2x
e |-----------------------------|-----------|---------------------------||
H |-----------------------------|-----------|---------------------------||
G |-222222---222222555222222----|-101010555-|---------------------------||
D |-222222333222222555222222333-|-101010555-|-3333355555----------------||
A |-000000333000000333000000333-|-8-8-8-333-|-3333355555----------------||
E |-------555---------------555-|-----------|-1111133333----------------||
                                               xxxx xxxx  
Chorus 4x
e |---------------------------------------------------------------------||
H |---------------------------------------------------------------------||
G |-2222-5555-----------------------------------------------------------||
D |-2222-5555-5555-3333-------------------------------------------------||
A |-0000-3333-5555-3333-------------------------------------------------||
E |-----------3333-1111-------------------------------------------------||

Break 2x
(Im not 100% sure) Help... :o)
e |---------------------------------------------------|-----------------||
H |---------------------------------------------------|-----------------||
G |---------------------------------------------------|-------------5555||
D |-------------5555------------------------33335555--|-5555555533335555||
A |-777777773333333377777777333355557777777711113333--|-5555555533333333||
E |-555555551111----555555551111333355555555----------|-333333331111----||
PM  xxxxxxxxxxxxxxxxxxxxxxxxxxxxxxxxxxxxxxxxxxxxxxxx

Bridge 2. Guitar 1x
|--------------------------|--------------------------|-----------------||
|--------------------------|--------------------------|-----------------||
|--------------------------|--------------------------|-------------5555||
|--------------------------|--------------------------|-5555555533335555||
|-0-3-0-7-0-3-5-8-10-8-----|-0-3-0-7-0-3-5-3-3-2-2-2--|-5555555533333333||
|----------------------8-8-|--------------------------|-333333331111----||

Chorus 4x
e |---------------------------------------------------------------------||
H |---------------------------------------------------------------------||
G |-2222-5555-----------------------------------------------------------||
D |-2222-5555-5555-3333-------------------------------------------------||
A |-0000-3333-5555-3333-------------------------------------------------||
E |-----------3333-1111-------------------------------------------------||

Ends on
e |---||
H |---||
G |-2-||
D |-2-||
A |-0-||
E |---||

Thats it. Please rate
Comments