Rise Against - Everchanging Chords & Tabs

 

Everchanging Chords & Tabs

Rise Against Chords & Tabs

Version: 1 Type: Tab 0 ratings
1 star 2 stars 3 stars 4 stars 5 stars
comments

Everchanging Tab

Song:Everchanging
Intro 
|------------|-------------|-----------|---------|
|------------|-------------|-----------|---------|
|------------|-------------|-----------|---------|
|-----5------|-----3-------|----2------|-------0-|
|---3---3--3-|---3---3---3-|--3---3--3-|-5-3-2-2-|
|-5------5---|-1-------1---|3------3---|-3-3-3-3-|
Verus 
pm.....................................................
|-------------|-------------|-------------|-------------|
|-------------|-------------|-------------|-------------|
|-------------|-------------|-------------|-------------|
|-5-5-5-5-5-5-|-3-3-3-3-3-3-|-2-2-2-2-2-2-|-0-0-0-0-0-0-|
|-3-3-3-3-3-3-|-3-3-3-3-3-3-|-3-3-3-3-3-3-|-2-2-2-2-2-2-|
|-5-5-5-5-5-5-|-1-1-1-1-1-1-|-3-3-3-3-3-3-|-3-3-3-3-3-3-|
[ Tab from: http://www.guitartabs.cc/tabs/r/rise_against/everchanging_tab.html ]
Comments