Rise Against - Envy Is Dangerous Chords & Tabs

 

Envy Is Dangerous Chords & Tabs

Rise Against Chords & Tabs

Version: 1 Type: Tab 0 ratings
1 star 2 stars 3 stars 4 stars 5 stars
comments

Envy Is Dangerous Tab

Band- Rise Against
Song- Envy Is Dangerous

Drop D tuning 

Intro: 

e|-----------------------------------| 
B|-----------------------------------| 
G|-----------------------------------| 
D|-10---------|-6-5-6-8--------------| 
A|-10---------|-6-5-6-8--------------| 
E|-10-let ring|-6-5-6-8--------------| 

Verse: 

e|---------------------------------------------------------------------------| 
B|---------------------------------------------------------------------------| 
G|---------------------------------------------------------------------------| 
D|-10-13-8-10-10-8-10-13-8-10-13-8-6-5-6-8-----------------------------------| 
A|-10-13-8-10-10-8-10-13-8-10-13-8-6-5-6-8-----x2----------------------------| 
E|-10-13-8-10-10-8-10-13-8-10-13-8-6-5-6-8-----------------------------------| 

Chorus: 

e|---------------------------------------------------------------------------| 
B|---------------------------------------------------------------------------| 
G|---------------------------------------------------------------------------| 
D|-10-8---------------------------------10-10-8-10-13------------------------| 
A|-10-8--------------------6-5-x2-------10-10-8-10-13------------------------| 
E|-10-8---8-8-8-6-5-5-5-6---------------10-10-8-10-13------------------------| 
pm 

Verse: 
[ Tab from: http://www.guitartabs.cc/tabs/r/rise_against/envy_is_dangerous_tab.html ]
e|---------------------------------------------------------------------------| 
B|---------------------------------------------------------------------------| 
G|---------------------------------------------------------------------------| 
D|-10-13-8-10-10-8-10-13-8-10-13-8-6-5-6-8-----------------------------------| 
A|-10-13-8-10-10-8-10-13-8-10-13-8-6-5-6-8-----x2----------------------------| 
E|-10-13-8-10-10-8-10-13-8-10-13-8-6-5-6-8-----------------------------------| 

Chorus: 

e|---------------------------------------------------------------------------| 
B|---------------------------------------------------------------------------| 
G|---------------------------------------------------------------------------| 
D|-10-8---------------------------------10-----------------------------------| 
A|-10-8--------------------6-5-x2-------10-----------------------------------| 
E|-10-8---8-8-8-6-5-5-5-6---------------10-let ring--------------------------| 
pm 

Outro: 

e|---------------------------------------------------------------------------| 
B|---------------------------------------------------------------------------| 
G|---------------------------------------------------------------------------| 
D|-10-11-10-8-10-13-8-10-11-10-8-10-13-8----|-10-13-8------------------------| 
A|-10-11-10-8-10-13-8-10-11-10-8-10-13-8----|-10-13-8------------------------| 
E|-10-11-10-8-10-13-8-10-11-10-8-10-13-8----|-10-13-8------------------------| 
pm pm pm 

e|---------------------------------------------------------------------------| 
B|---------------------------------------------------------------------------| 
G|---------------------------------------------------------------------------| 
D|-10-11-10-8-10-13-8-10-11-10-8-10-13-8-------------------------------------| 
A|-10-11-10-8-10-13-8-10-11-10-8-10-13-8-------------------------------------| 
E|-10-11-10-8-10-13-8-10-11-10-8-10-13-8-------------------------------------|
Comments