Rise Against - Dancing For Rain Chords & Tabs

 

Dancing For Rain Chords & Tabs

Rise Against Chords & Tabs

Version: 3 Type: Tab 0 ratings
1 star 2 stars 3 stars 4 stars 5 stars
comments

Dancing For Rain Tab

   
DANCING FOR RAIN
As recorded by Rise Against
(From the 2004 Album SIREN SONG OF THE COUNTER CULTURE)

Transcribed by Ethan Wallace
Email: ethan@ethanwallace.com

Words and Music by Rise Against

E5
2 2 2 x x x
	
F#5
4 4 4 x x x
	
G5
5 5 5 x x x
	
D5
x 5 7 7 x x
C5
x 3 5 5 x x
	
B5
x 2 4 4 x x
	
C/G
x 10 10 9 x x
	
C5/G
x 10 10 12 x x

Gtr I (Eb Ab Db Gb Bb Eb) - 'Acoustic'
Gtr II (Eb Ab Db Gb Bb Eb) - 'Distortion 1'
Gtr III (Eb Ab Db Gb Bb Eb) - 'Distortion 2'
Gtr IV (Eb Ab Db Gb Bb Eb) - 'Extra'
Gtr V (Eb Ab Db Gb Bb Eb) - 'Oboe'

 Intro
  Q=150
  N.C.
 4/4
  Gtr I
  Q.     E E E E E    E  E E E E E E E    E  E E E E E E E    E  E E E E E Q
|------------------|-------------------|-------------------|------------------|
|-7------8-----8---|-----8-----8---7---|--7------7-----7---|-----7-----7------|
|----------9-----9-|-------9-----9---9-|-----9-----7-----7-|-------7-----7----|
|------------9-----|--9------9---------|-------9-----9-----|--9------9-----9--|
|------------------|-------------------|-------------------|------------------|
|-----0------------|-(0)---------------|-(0)---------------|-(0)--------------|
  Q   H.             +W                  +W                  +W


                                            C/G           C5/G
                                                         3/4
   Q  E  E E E  E E   E  E E E  E E Q    Q   Q.    Q.      H.         +H.
|-------------------|------------------|----------------|----------|---------|
|-------10-----10---|---10-----10---8--|-7--------------|----------|---------|
|----------7------7-|------7------7----|-----9----11----|-12-------|-(12)----|
|-10--7------7------|-7------7---------|----10----------|-10-------|-(10)----|
|-------------------|------------------|----10----------|-10-------|-(10)----|
|-------------------|------------------|----------------|----------|---------|


   Pre-Verse
    $
    E   F#    G  D5          C5        D5
   4/4
    Gtr II
    E S  E  S  E E S E S E   E S E S E E S E S E  4x
||-------------------------|----------------------||
||o------------------------|---------------------o||
||--9-9-11-11-12-7-7-7-7---|-5-5-5-5---7-7-7-7-7--||
||---------------7-7-7-7---|-5-5-5-5---7-7-7-7-7--||
||o-7-7--9--9-10-5-5-5-5-2-|-3-3-3-3-2-5-5-5-5-5-o||
||-------------------------|----------------------||
|
|   Gtr III
|   E S  E  S  E E S E S E   E S E S E E S E S E  4x
||-------------------------|----------------------||
||o------------------------|---------------------o||
||---------------7-7-7-7---|-5-5-5-5---7-7-7-7-7--||
||--2-2--4--4--5-7-7-7-7---|-5-5-5-5---7-7-7-7-7--||
||o-2-2--4--4--5-5-5-5-5-2-|-3-3-3-3-2-5-5-5-5-5-o||
||--0-0--2--2--3-----------|----------------------||


 Verse
  E
  >
  W          +W           W          W
|----------|------------|----------|------|
|----------|------------|----------|------|
|-9--------|-(9)--------|----------|------|
|----------|------------|----------|------|
|-7--------|-(7)--------|----------|------|
|----------|------------|----------|------|
|
| >
| W          +W           W          W
|----------|------------|----------|------|
|----------|------------|----------|------|
|----------|------------|----------|------|
|-2--------|-(2)--------|----------|------|
|-2--------|-(2)--------|----------|------|
|-0--------|-(0)--------|----------|------|


                                                                D5
  E E E E E E E E   E E E E E E E E   E E E E E E E E   E E E E E S S E S S
|-----------------|-----------------|-----------------|-----------------------|
|-----------------|-----------------|-----------------|-----------------------|
|---9---9---9---9-|---9---9---9---9-|---9---9---9---9-|---9---9-7-7-7-7-7-7---|
|-----------------|-----------------|-----------------|---------7-7-7-7-7-7---|
|---7---7---7---7-|---7---7---7---7-|---7---7---7---7-|---7---7-5-5-5-5-5-5---|
|-----------------|-----------------|-----------------|-----------------------|
|
| W                 W                 W                 W
|-----------------|-----------------|-----------------|-----------------------|
|-----------------|-----------------|-----------------|-----------------------|
|-----------------|-----------------|-----------------|-----------------------|
|-----------------|-----------------|-----------------|-----------------------|
|-----------------|-----------------|-----------------|-----------------------|
|-----------------|-----------------|-----------------|-----------------------|


 2/4           4/4
  E S S E S S   q  Q   Q  Q
|-------------|--------------|
|-------------|----8---7-----|
|-7-7-7-7-7-7-|-7---------7--|
|-7-7-7-7-7-7-|-7------------|
|-5-5-5-5-5-5-|-5------------|
|-------------|--------------|
|
| E S S E S S   q  H.
|-------------|--------------|
|-------------|--------------|
|-7-7-7-7-7-7-|-7------------|
|-7-7-7-7-7-7-|-7------------|
|-5-5-5-5-5-5-|-5------------|
|-------------|--------------|


 Chorus
  E5                G5
  E E E E E E E E   E E E E E E E E
|-----------------|-----------------|
|-----------------|-----------------|
|-9-9-9-9-9-9-9-9-|-9-9-9-9-9-9-9-9-|
|-----------------|-----------------|
|-7-7-7-7-7-7-7-7-|-7-7-7-7-7-7-7-7-|
|-----------------|-----------------|
|
| E E E E E E E E   E E E E E E E E
|-----------------|-----------------|
|-----------------|-----------------|
|-----------------|-----------------|
|-2-2-2-2-2-2-2-2-|-5-5-5-5-5-5-5-5-|
|-2-2-2-2-2-2-2-2-|-5-5-5-5-5-5-5-5-|
|-0-0-0-0-0-0-0-0-|-3-3-3-3-3-3-3-3-|
|
| Gtr IV
| W                 W
|-----------------|-----------------|
|-----------------|-----------------|
|-----------------|-----------------|
|-----------------|-----------------|
|-----------------|-----------------|
|-----------------|-----------------|


  C5                D5
  E E E E E E E E    E  E  E  E  E  E  E  E
|-----------------|-------------------------|
|-----------------|-------------------------|
|-9-9-9-9-9-9-9-9-|-11-11-11-11-11-11-11-11-|
|-----------------|-------------------------|
|-7-7-7-7-7-7-7-7-|--9--9--9--9--9--9--9--9-|
|-----------------|-------------------------|
|
| E E E E E E E E    E  E  E  E  E  E  E  E
|-----------------|-------------------------|
|-----------------|-------------------------|
|-5-5-5-5-5-5-5-5-|--7--7--7--7--7--7--7--7-|
|-5-5-5-5-5-5-5-5-|--7--7--7--7--7--7--7--7-|
|-3-3-3-3-3-3-3-3-|--5--5--5--5--5--5--5--5-|
|-----------------|-------------------------|
|
| W                  Q     Q     Q     Q
|-----------------|-------------------------|
|-----------------|--------8-----7----------|
|-----------------|--------------------7----|
|-----------------|-------------------------|
|-----------------|-------------------------|
|-----------------|-------------------------|


  E5                  G5                C5                  G5 D5
   E  E E E E E E E   E E E E E E E E   E E E E E E E E   E Q  Q  E E E
|-------------------|-----------------|-----------------|---------------|
|-------------------|-----------------|-----------------|---------------|
|--9--9-9-9-9-9-9-9-|-9-9-9-9-9-9-9-9-|-9-9-9-9-9-9-9-9-|------7--7-7-7-|
|-------------------|-----------------|-----------------|-x-5--7--7-7-7-|
|--7--7-7-7-7-7-7-7-|-7-7-7-7-7-7-7-7-|-7-7-7-7-7-7-7-7-|-x-5--5--5-5-5-|
|-------------------|-----------------|-----------------|-x-3-----------|
|
|  E  E E E E E E E   E E E E E E E E   E E E E E E E E   E Q  Q  E E E
|-------------------|-----------------|-----------------|---------------|
|-------------------|-----------------|-----------------|---------------|
|-------------------|-----------------|-5-5-5-5-5-5-5-5-|------7--7-7-7-|
|--2--2-2-2-2-2-2-2-|-5-5-5-5-5-5-5-5-|-5-5-5-5-5-5-5-5-|-x-5--7--7-7-7-|
|--2--2-2-2-2-2-2-2-|-5-5-5-5-5-5-5-5-|-3-3-3-3-3-3-3-3-|-x-5--5--5-5-5-|
|--0--0-0-0-0-0-0-0-|-3-3-3-3-3-3-3-3-|-----------------|-x-3-----------|
|
|  >
| +W                  W                 W                 W
|-------------------|-----------------|-----------------|---------------|
|-------------------|-----------------|-----------------|---------------|
|-(7)---------------|-----------------|-----------------|---------------|
|-------------------|-----------------|-----------------|---------------|
|-------------------|-----------------|-----------------|---------------|
|-------------------|-----------------|-----------------|---------------|


  E5                G5
  E E E E E E E E   E E E E E E E E
|-----------------|-----------------|
|-----------------|-----------------|
|-9-9-9-9-9-9-9-9-|-9-9-9-9-9-9-9-9-|
|-----------------|-----------------|
|-7-7-7-7-7-7-7-7-|-7-7-7-7-7-7-7-7-|
|-----------------|-----------------|
|
| E E E E E E E E   E E E E E E E E
|-----------------|-----------------|
|-----------------|-----------------|
|-----------------|-----------------|
|-2-2-2-2-2-2-2-2-|-5-5-5-5-5-5-5-5-|
|-2-2-2-2-2-2-2-2-|-5-5-5-5-5-5-5-5-|
|-0-0-0-0-0-0-0-0-|-3-3-3-3-3-3-3-3-|
|
| Gtr IV
| E E E E E E E E   E E E E E E E E
|-----------------|-----------------|
|-8p0-0-7p0-0-3p0-|-8p0-0-7p0-0-3p0-|
|-----------------|-----------------|
|-----------------|-----------------|
|-----------------|-----------------|
|-----------------|-----------------|


                                  To Coda
  C5                D5
  E E E E E E E E    E  E  E  E  E  E  E  E
|-----------------|-------------------------|
|-----------------|-------------------------|
|-9-9-9-9-9-9-9-9-|-11-11-11-11-11-11-11-11-|
|-----------------|-------------------------|
|-7-7-7-7-7-7-7-7-|--9--9--9--9--9--9--9--9-|
|-----------------|-------------------------|
|
| E E E E E E E E    E  E  E  E  E  E  E  E
|-----------------|-------------------------|
|-----------------|-------------------------|
|-5-5-5-5-5-5-5-5-|--7--7--7--7--7--7--7--7-|
|-5-5-5-5-5-5-5-5-|--7--7--7--7--7--7--7--7-|
|-3-3-3-3-3-3-3-3-|--5--5--5--5--5--5--5--5-|
|-----------------|-------------------------|
|
| E E E E E E E E    Q     Q     Q     Q
|-----------------|-------------------------|
|-3p0-0-5p0-0-5p0-|--------8-----7----------|
|-----------------|--------------------7----|
|-----------------|-------------------------|
|-----------------|-------------------------|
|-----------------|-------------------------|


                                                        D.S. al Coda
  E5                G5                C5                  G5 D5
  E E E E E E E E   E E E E E E E E   E E E E E E E E   E Q  Q  E E  E
|-----------------|-----------------|-----------------|-----------------|
|-----------------|-----------------|-----------------|-----------------|
|-9-9-9-9-9-9-9-9-|-9-9-9-9-9-9-9-9-|-9-9-9-9-9-9-9-9-|------7--7-7--7--|
|-----------------|-----------------|-----------------|-x-5--7--7-7--7--|
|-7-7-7-7-7-7-7-7-|-7-7-7-7-7-7-7-7-|-7-7-7-7-7-7-7-7-|-x-5--5--5-5--5--|
|-----------------|-----------------|-----------------|-x-3-------------|
|
| E E E E E E E E   E E E E E E E E   E E E E E E E E   E Q  Q  E E  E
|-----------------|-----------------|-----------------|-----------------|
|-----------------|-----------------|-----------------|-----------------|
|-----------------|-----------------|-5-5-5-5-5-5-5-5-|------7--7-7--7--|
|-2-2-2-2-2-2-2-2-|-5-5-5-5-5-5-5-5-|-5-5-5-5-5-5-5-5-|-x-5--7--7-7--7--|
|-2-2-2-2-2-2-2-2-|-5-5-5-5-5-5-5-5-|-3-3-3-3-3-3-3-3-|-x-5--5--5-5--5--|
|-0-0-0-0-0-0-0-0-|-3-3-3-3-3-3-3-3-|-----------------|-x-3-------------|
|
| E E E E E E E E   E E E E E E E E   E E E E E E E E   E Q  H      +E
|-----------------|-----------------|-----------------|-----------------|
|-8p0-0-7p0-0-3p0-|-8p0-0-7p0-0-3p0-|-3p0-0-5p0-0-5p0-|---8--7------(7)-|
|-----------------|-----------------|-----------------|-----------------|
|-----------------|-----------------|-----------------|-----------------|
|-----------------|-----------------|-----------------|-----------------|
|-----------------|-----------------|-----------------|-----------------|


  &
  E5                G5                C5                   G5 D5
  E E E E E E E E   E E E E E E E E   E E E E E E E E   E  Q  Q  Q.
|-----------------|-----------------|-----------------|----------------|
|-----------------|-----------------|-----------------|----------------|
|-9-9-9-9-9-9-9-9-|-9-9-9-9-9-9-9-9-|-9-9-9-9-9-9-9-9-|-------7--------|
|-----------------|-----------------|-----------------|-x--5--7--------|
|-7-7-7-7-7-7-7-7-|-7-7-7-7-7-7-7-7-|-7-7-7-7-7-7-7-7-|-x--5--5--------|
|-----------------|-----------------|-----------------|-x--3-----------|
|
| E E E E E E E E   E E E E E E E E   E E E E E E E E   E  Q  Q  Q.
|-----------------|-----------------|-----------------|----------------|
|-----------------|-----------------|-----------------|----------------|
|-----------------|-----------------|-5-5-5-5-5-5-5-5-|-------7--------|
|-2-2-2-2-2-2-2-2-|-5-5-5-5-5-5-5-5-|-5-5-5-5-5-5-5-5-|-x--5--7--------|
|-2-2-2-2-2-2-2-2-|-5-5-5-5-5-5-5-5-|-3-3-3-3-3-3-3-3-|-x--5--5--------|
|-0-0-0-0-0-0-0-0-|-3-3-3-3-3-3-3-3-|-----------------|-x--3-----------|
|
|                                                       Gtr I
| E E E E E E E E   E E E E E E E E   E E E E E E E E   H.          Q
|-----------------|-----------------|-----------------|----------------|
|-8p0-0-7p0-0-3p0-|-8p0-0-7p0-0-3p0-|-3p0-0-5p0-0-5p0-|-------------7--|
|-----------------|-----------------|-----------------|----------------|
|-----------------|-----------------|-----------------|----------------|
|-----------------|-----------------|-----------------|----------------|
|-----------------|-----------------|-----------------|----------------|


 Guitar Break
  E
 3/4            4/4
  Gtr II
  >
  H.             +W                   W                   W
|--------------|-------------------|-------------------|-------------------|
|--------------|-------------------|-------------------|-------------------|
|-9------------|-(9)---------------|-------------------|-------------------|
|--------------|-------------------|-------------------|-------------------|
|-7------------|-(7)---------------|-------------------|-------------------|
|--------------|-------------------|-------------------|-------------------|
|
| >
| H.             +W                   W                   W
|--------------|-------------------|-------------------|-------------------|
|--------------|-------------------|-------------------|-------------------|
|--------------|-------------------|-------------------|-------------------|
|-2------------|-(2)---------------|-------------------|-------------------|
|-2------------|-(2)---------------|-------------------|-------------------|
|-0------------|-(0)---------------|-------------------|-------------------|
|
| Gtr I
| E  E E E E E    E  E E E E E E E    E  E E E E E E E    E  E E E E E Q
|--------------|-------------------|-------------------|-------------------|
|----8-----8---|-----8-----8---7---|--7------7-----7---|-----7-----7-------|
|------9-----9-|-------9-----9---9-|-----9-----7-----7-|-------7-----7-----|
|--------9-----|--9------9---------|-------9-----9-----|--9------9-----9---|
|--------------|-------------------|-------------------|-------------------|
|-0------------|-(0)---------------|-(0)---------------|-(0)---------------|
  H.             +W                  +W                  +W


                                            C/G           C5/G
  Gtr I
   Q  E  E E E  E E   E  E E E  E E Q    Q   Q.    Q.      W
|-------------------|------------------|----------------|-------|
|-------10-----10---|---10-----10---8--|-7--------------|-------|
|----------7------7-|------7------7----|-----9----11----|-12----|
|-10--7------7------|-7------7---------|----10----------|-10----|
|-------------------|------------------|----10----------|-10----|
|-------------------|------------------|----------------|-------|


  Q.     E E E E E    E  E E E E E E E    E  E E  E E E E E    E  E E E E E Q
|------------------|-------------------|--------------------|------------------|
|-7------8-----8---|-----8-----8---7---|--7-------7-----7---|-----7-----7------|
|----------9-----9-|-------9-----9---9-|-----9------7-----7-|-------7-----7----|
|------------9-----|--9------9---------|-------9------9-----|--9------9-----9--|
|------------------|-------------------|--------------------|------------------|
|-----0------------|-(0)---------------|-(0)----------------|-(0)--------------|
| Q   H.             +W                  +W                   +W
|
| Gtr V
|     <
| Q   H.             +W                  +Q    H.             +W
|------------------|-------------------|--------------------|------------------|
|------------------|-------------------|--------------------|------------------|
|-----9------------|-(9)---------------|-(9)---7------------|-(7)--------------|
|------------------|-------------------|--------------------|------------------|
|-----7------------|-(7)---------------|-(7)---5------------|-(5)--------------|
|------------------|-------------------|--------------------|------------------|


                                                  C/G           C5/G
                                                               3/4
   Q   E   E E E  E E    E   E E E  E E Q     Q    Q.    Q.      H.
|---------------------|--------------------|------------------|--------|
|---------10-----10---|-----10-----10---8--|--7---------------|--------|
|------------7------7-|--------7------7----|-------9----11----|-12-----|
|-10---7-------7------|--7-------7---------|------10----------|-10-----|
|---------------------|--------------------|------10----------|-10-----|
|---------------------|--------------------|------------------|--------|
|
| Gtr V
| +Q   H.               +W                   +Q    Q.    Q.      H.
|---------------------|--------------------|------------------|--------|
|---------------------|--------------------|------------------|--------|
|-(7)-----------------|--------------------|-------5-----7----|--9-----|
|------7--------------|-(7)----------------|-(7)--------------|--------|
|-(5)-----------------|--------------------|-------3-----5----|--7-----|
|------5--------------|-(5)----------------|-(5)--------------|--------|


 Interlude
                E5
 2/4           4/4
  Gtr II
   E  E  E  E    E  +E   +E   E  E  +E   E  +E
|-------------|---------------------------------|
|-------------|---------------------------------|
|-11-11-11-11-|-12-(12)-(12)-12-12-(12)-12-(12)-|
|-------------|---------------------------------|
|--9--9--9--9-|-10-(10)-(10)-10-10-(10)-10-(10)-|
|-------------|---------------------------------|
|
| Gtr III
|  W             E   E    E   E  E   E   E   E
|-------------|---------------------------------|
|-------------|---------------------------------|
|-------------|---------------------------------|
|-------------|--2---2----2---2--2---2---2---2--|
|-------------|--2---2----2---2--2---2---2---2--|
|-------------|--0---0----0---0--0---0---0---0--|


   +E   +E   E  +E   E  +E  E +E
|---------------------------------|
|---------------------------------|
|-(12)-(12)-12-(12)-11-(11)-9-(9)-|
|---------------------------------|
|-(10)-(10)-10-(10)--9--(9)-7-(7)-|
|---------------------------------|
|
|   E    E   E   E   E   E  E  E
|---------------------------------|
|---------------------------------|
|---------------------------------|
|---2----2---2---2---2---2--2--2--|
|---2----2---2---2---2---2--2--2--|
|---0----0---0---0---0---0--0--0--|


  B5
  E +E  +E  E E +E  E +E    +E  +E  E +E  E E E +E
|-------------------------|-------------------------|
|-------------------------|-------------------------|
|-7-(7)-(7)-7-7-(7)-7-(7)-|-(7)-(7)-7-(7)-7-7-4-(4)-|
|-------------------------|-------------------------|
|-5-(5)-(5)-5-5-(5)-5-(5)-|-(5)-(5)-5-(5)-5-5-2-(2)-|
|-------------------------|-------------------------|
|
| E  E   E  E E  E  E  E     E   E  E  E  E E E  E
|-------------------------|-------------------------|
|-------------------------|-------------------------|
|-4--4---4--4-4--4--4--4--|--4---4--4--4--4-4-4--4--|
|-4--4---4--4-4--4--4--4--|--4---4--4--4--4-4-4--4--|
|-2--2---2--2-2--2--2--2--|--2---2--2--2--2-2-2--2--|
|-------------------------|-------------------------|


  D5                                          B5
  E +E  +E  E E +E  E +E    +E  +E  E +E  E E E +E
|-------------------------|-------------------------|
|-------------------------|-------------------------|
|-7-(7)-(7)-7-7-(7)-7-(7)-|-(7)-(7)-7-(7)-7-7-4-(4)-|
|-------------------------|-------------------------|
|-5-(5)-(5)-5-5-(5)-5-(5)-|-(5)-(5)-5-(5)-5-5-2-(2)-|
|-------------------------|-------------------------|
|
| E  E   E  E E  E  E  E     E   E  E  E  E E E +E
|-------------------------|-------------------------|
|-------------------------|-------------------------|
|-7--7---7--7-7--7--7--7--|--7---7--7--7--7-7-4-(4)-|
|-7--7---7--7-7--7--7--7--|--7---7--7--7--7-7-4-(4)-|
|-5--5---5--5-5--5--5--5--|--5---5--5--5--5-5-2-(2)-|
|-------------------------|-------------------------|

[ Tab from: http://www.guitartabs.cc/tabs/r/rise_against/dancing_for_rain_tab_ver_3.html ]
  C5
  E +E  +E  E E +E  E +E    +E  +E  E +E   E  E  E  E
|-------------------------|---------------------------|
|-------------------------|---------------------------|
|-9-(9)-(9)-9-9-(9)-9-(9)-|-(9)-(9)-9-(9)-11-11-11-11-|
|-------------------------|---------------------------|
|-7-(7)-(7)-7-7-(7)-7-(7)-|-(7)-(7)-7-(7)--9--9--9--9-|
|-------------------------|---------------------------|
|
| E  E   E  E E  E  E  E     E   E  E  E   E  E  E  E
|-------------------------|---------------------------|
|-------------------------|---------------------------|
|-5--5---5--5-5--5--5--5--|--5---5--5--5---5--5--5--5-|
|-5--5---5--5-5--5--5--5--|--5---5--5--5---5--5--5--5-|
|-3--3---3--3-3--3--3--3--|--3---3--3--3---3--3--3--3-|
|-------------------------|---------------------------|


  E5
   E  +E   +E   E  E  +E   E  +E     +E   +E   E  +E   E  +E   E  +E
|---------------------------------|-----------------------------------|
|---------------------------------|-----------------------------------|
|-12-(12)-(12)-12-12-(12)-12-(12)-|-(12)-(12)-14-(14)-12-(12)-11-(11)-|
|---------------------------------|-----------------------------------|
|-10-(10)-(10)-10-10-(10)-10-(10)-|-(10)-(10)-12-(12)-10-(10)--9--(9)-|
|---------------------------------|-----------------------------------|
|
|  E   E    E   E  E   E   E   E      E    E   E   E   E   E   E   E
|---------------------------------|-----------------------------------|
|---------------------------------|-----------------------------------|
|---------------------------------|-----------------------------------|
|--2---2----2---2--2---2---2---2--|---2----2---2---2---2---2---2---2--|
|--2---2----2---2--2---2---2---2--|---2----2---2---2---2---2---2---2--|
|--0---0----0---0--0---0---0---0--|---0----0---0---0---0---0---0---0--|


  B5
  E +E  +E  E E +E  E +E    +E  +E  E +E  E E E +E
|-------------------------|-------------------------|
|-------------------------|-------------------------|
|-7-(7)-(7)-7-7-(7)-7-(7)-|-(7)-(7)-7-(7)-7-7-4-(4)-|
|-------------------------|-------------------------|
|-5-(5)-(5)-5-5-(5)-5-(5)-|-(5)-(5)-5-(5)-5-5-2-(2)-|
|-------------------------|-------------------------|
|
| E  E   E  E E  E  E  E     E   E  E  E  E E E  E
|-------------------------|-------------------------|
|-------------------------|-------------------------|
|-4--4---4--4-4--4--4--4--|--4---4--4--4--4-4-4--4--|
|-4--4---4--4-4--4--4--4--|--4---4--4--4--4-4-4--4--|
|-2--2---2--2-2--2--2--2--|--2---2--2--2--2-2-2--2--|
|-------------------------|-------------------------|


  D5                                          B5
  E +E  +E  E E +E  E +E    +E  +E  E +E  E E E +E
|-------------------------|-------------------------|
|-------------------------|-------------------------|
|-7-(7)-(7)-7-7-(7)-7-(7)-|-(7)-(7)-7-(7)-7-7-4-(4)-|
|-------------------------|-------------------------|
|-5-(5)-(5)-5-5-(5)-5-(5)-|-(5)-(5)-5-(5)-5-5-2-(2)-|
|-------------------------|-------------------------|
|
| E  E   E  E E  E  E  E     E   E  E  E  E E E +E
|-------------------------|-------------------------|
|-------------------------|-------------------------|
|-7--7---7--7-7--7--7--7--|--7---7--7--7--7-7-4-(4)-|
|-7--7---7--7-7--7--7--7--|--7---7--7--7--7-7-4-(4)-|
|-5--5---5--5-5--5--5--5--|--5---5--5--5--5-5-2-(2)-|
|-------------------------|-------------------------|


  C5
  E +E  +E  E E +E  E +E    +E  +E  E +E   E  E  E  E
|-------------------------|---------------------------|
|-------------------------|---------------------------|
|-9-(9)-(9)-9-9-(9)-9-(9)-|-(9)-(9)-9-(9)-11-11-11-11-|
|-------------------------|---------------------------|
|-7-(7)-(7)-7-7-(7)-7-(7)-|-(7)-(7)-7-(7)--9--9--9--9-|
|-------------------------|---------------------------|
|
| E  E   E  E E  E  E  E     E   E  E  E   E  E  E  E
|-------------------------|---------------------------|
|-------------------------|---------------------------|
|-5--5---5--5-5--5--5--5--|--5---5--5--5---5--5--5--5-|
|-5--5---5--5-5--5--5--5--|--5---5--5--5---5--5--5--5-|
|-3--3---3--3-3--3--3--3--|--3---3--3--3---3--3--3--3-|
|-------------------------|---------------------------|


  E5
      PM|      PM|      PM--|      PM|
   E  E  E  E  E  E  E  E    E  E  E  E  E  E  E  E
|-------------------------|-------------------------|
|-------------------------|-------------------------|
|-12-------12-------12----|----12-------12-12-12-12-|
|-------------------------|-------------------------|
|-10-10-10-10-10-10-10-10-|-10-10-10-10-10-10-10-10-|
|-------------------------|-------------------------|
|
|     PM|      PM|      PM--|      PM|
|  E  E  E  E  E  E  E  E    E  E  E  E  E  E  E  E
|-------------------------|-------------------------|
|-------------------------|-------------------------|
|-------------------------|-------------------------|
|--2--------2--------2----|-----2--------2--2--2--2-|
|--2--------2--------2----|-----2--------2--2--2--2-|
|--0--0--0--0--0--0--0--0-|--0--0--0--0--0--0--0--0-|


  B5
     PM|    PM|    PM--|    PM|
   E E E  E E E  E E   E  E E E  E  E  E  E
|--------------------|----------------------|
|--------------------|----------------------|
|-11-----11-----11---|---11-----11-11-11-11-|
|--------------------|----------------------|
|--9-9-9--9-9-9--9-9-|-9--9-9-9--9--9--9--9-|
|--------------------|----------------------|
|
|    PM|    PM|    PM--|    PM|
|  E E E  E E E  E E   E  E E E  E  E  E  E
|--------------------|----------------------|
|--------------------|----------------------|
|--4------4------4---|----4------4--4--4--4-|
|--4------4------4---|----4------4--4--4--4-|
|--2-2-2--2-2-2--2-2-|-2--2-2-2--2--2--2--2-|
|--------------------|----------------------|


  D5
      PM|      PM|      PM--|      PM|
   E  E  E  E  E  E  E  E    E  E  E  E  E  E  E  E
|-------------------------|-------------------------|
|-------------------------|-------------------------|
|-14-------14-------14----|----14-------14-14-14-14-|
|-------------------------|-------------------------|
|-12-12-12-12-12-12-12-12-|-12-12-12-12-12-12-12-12-|
|-------------------------|-------------------------|
|
|     PM|      PM|      PM--|      PM|
|  E  E  E  E  E  E  E  E    E  E  E  E  E  E  E  E
|-------------------------|-------------------------|
|-------------------------|-------------------------|
|--7--------7--------7----|-----7--------7--7--7--7-|
|--7--------7--------7----|-----7--------7--7--7--7-|
|--5--5--5--5--5--5--5--5-|--5--5--5--5--5--5--5--5-|
|-------------------------|-------------------------|


  C5
      PM|      PM|      PM--|      PM|
   E  E  E  E  E  E  E  E    E  E  E  E  E  E  E  E
|-------------------------|-------------------------|
|-------------------------|-------------------------|
|-12-------12-------12-12-|-12-12-12-12-11-11-11-11-|
|-------------------------|-------------------------|
|-10-10-10-10-10-10-10-10-|-10-10-10-10--9--9--9--9-|
|-------------------------|-------------------------|
|
|     PM|      PM|      PM--|      PM|
|  E  E  E  E  E  E  E  E    E  E  E  E  E  E  E  E
|-------------------------|-------------------------|
|-------------------------|-------------------------|
|--5--------5--------5----|-----5--------5--5--5--5-|
|--5--------5--------5----|-----5--------5--5--5--5-|
|--3--3--3--3--3--3--3--3-|--3--3--3--3--3--3--3--3-|
|-------------------------|-------------------------|


  E5
      PM|      PM|      PM--|      PM|
   E  E  E  E  E  E  E  E    E  E  E  E  E  E  E E
|-------------------------|------------------------|
|-------------------------|------------------------|
|-12-------12-------12----|----14-------12----11---|
|-------------------------|------------------------|
|-10-10-10-10-10-10-10-10-|-10-12-10-10-10-10--9-9-|
|-------------------------|------------------------|
|
|     PM|      PM|      PM--|      PM|
|  E  E  E  E  E  E  E  E    E  E  E  E  E  E  E E
|-------------------------|------------------------|
|-------------------------|------------------------|
|-------------------------|------------------------|
|--2--------2--------2----|-----2--------2--2--2-2-|
|--2--------2--------2----|-----2--------2--2--2-2-|
|--0--0--0--0--0--0--0--0-|--0--0--0--0--0--0--0-0-|


  B5
     PM|    PM|    PM--|    PM|
   E E E  E E E  E E   E  E E E  E E  E E
|--------------------|--------------------|
|--------------------|--------------------|
|-11-----11-----11---|---11-----11---11---|
|--------------------|--------------------|
|--9-9-9--9-9-9--9-9-|-9--9-9-9--9-9--9-9-|
|--------------------|--------------------|
|
|    PM|    PM|    PM--|    PM|
|  E E E  E E E  E E   E  E E E  E E  E E
|--------------------|--------------------|
|--------------------|--------------------|
|--4------4------4---|----4------4-4--4-4-|
|--4------4------4---|----4------4-4--4-4-|
|--2-2-2--2-2-2--2-2-|-2--2-2-2--2-2--2-2-|
|--------------------|--------------------|


  D5                                          B5 D5
      PM|      PM|      PM--|      PM|
   E  E  E  E  E  E  E  E    E  E  E  E  E  E  E  E
|-------------------------|-------------------------|
|-------------------------|-------------------------|
|-14-------14-------14----|----14-------14----12----|
|-------------------------|-------------------------|
|-12-12-12-12-12-12-12-12-|-12-12-12-12-12-12-10S12-|
|-------------------------|-------------------------|
|
|     PM|      PM|      PM--|      PM|
|  E  E  E  E  E  E  E  E    E  E  E  E  E  E  E  E
|-------------------------|-------------------------|
|-------------------------|-------------------------|
|--7--------7--------7----|-----7--------7--7--4S=7-|
|--7--------7--------7----|-----7--------7--7--4S=7-|
|--5--5--5--5--5--5--5--5-|--5--5--5--5--5--5--2S=5-|
|-------------------------|-------------------------|


      PM|
   E  E  E  E  E  E  E  E    q  Q   Q  Q
|-------------------------|---------------|
|-------------------------|-----8---7-----|
|-14-------14-14-14-14-14-|-14---------7--|
|-------------------------|---------------|
|-12-12-12-12-12-12-12-12-|-12------------|
|-------------------------|---------------|
|
|     PM|
|  E  E  E  E  E  E  E  E    q  H.
|-------------------------|---------------|
|-------------------------|---------------|
|--7--------7--7--7--7--7-|--7------------|
|--7--------7--7--7--7--7-|--7------------|
|--5--5--5--5--5--5--5--5-|--5------------|
|-------------------------|---------------|


 Chorus
  E5                G5
  E E E E E E E E   E E E E E E E E
|-----------------|-----------------|
|-----------------|-----------------|
|-9-9-9-9-9-9-9-9-|-9-9-9-9-9-9-9-9-|
|-----------------|-----------------|
|-7-7-7-7-7-7-7-7-|-7-7-7-7-7-7-7-7-|
|-----------------|-----------------|
|
| E E E E E E E E   E E E E E E E E
|-----------------|-----------------|
|-----------------|-----------------|
|-----------------|-----------------|
|-2-2-2-2-2-2-2-2-|-5-5-5-5-5-5-5-5-|
|-2-2-2-2-2-2-2-2-|-5-5-5-5-5-5-5-5-|
|-0-0-0-0-0-0-0-0-|-3-3-3-3-3-3-3-3-|
|
| Gtr IV
| W                 W
|-----------------|-----------------|
|-----------------|-----------------|
|-----------------|-----------------|
|-----------------|-----------------|
|-----------------|-----------------|
|-----------------|-----------------|


  C5                D5
  E E E E E E E E    E  E  E  E  E  E  E  E
|-----------------|-------------------------|
|-----------------|-------------------------|
|-9-9-9-9-9-9-9-9-|-11-11-11-11-11-11-11-11-|
|-----------------|-------------------------|
|-7-7-7-7-7-7-7-7-|--9--9--9--9--9--9--9--9-|
|-----------------|-------------------------|
|
| E E E E E E E E    E  E  E  E  E  E  E  E
|-----------------|-------------------------|
|-----------------|-------------------------|
|-5-5-5-5-5-5-5-5-|--7--7--7--7--7--7--7--7-|
|-5-5-5-5-5-5-5-5-|--7--7--7--7--7--7--7--7-|
|-3-3-3-3-3-3-3-3-|--5--5--5--5--5--5--5--5-|
|-----------------|-------------------------|
|
| W                  Q     Q     Q     Q
|-----------------|-------------------------|
|-----------------|--------8-----7----------|
|-----------------|--------------------7----|
|-----------------|-------------------------|
|-----------------|-------------------------|
|-----------------|-------------------------|


  E5                G5                C5                  G5 D5
  E E E E E E E E   E E E E E E E E   E E E E E E E E   E Q  Q  E E E
|-----------------|-----------------|-----------------|---------------|
|-----------------|-----------------|-----------------|---------------|
|-9-9-9-9-9-9-9-9-|-9-9-9-9-9-9-9-9-|-9-9-9-9-9-9-9-9-|------7--7-7-7-|
|-----------------|-----------------|-----------------|-x-5--7--7-7-7-|
|-7-7-7-7-7-7-7-7-|-7-7-7-7-7-7-7-7-|-7-7-7-7-7-7-7-7-|-x-5--5--5-5-5-|
|-----------------|-----------------|-----------------|-x-3-----------|
|
| E E E E E E E E   E E E E E E E E   E E E E E E E E   E Q  Q  E E E
|-----------------|-----------------|-----------------|---------------|
|-----------------|-----------------|-----------------|---------------|
|-----------------|-----------------|-5-5-5-5-5-5-5-5-|------7--7-7-7-|
|-2-2-2-2-2-2-2-2-|-5-5-5-5-5-5-5-5-|-5-5-5-5-5-5-5-5-|-x-5--7--7-7-7-|
|-2-2-2-2-2-2-2-2-|-5-5-5-5-5-5-5-5-|-3-3-3-3-3-3-3-3-|-x-5--5--5-5-5-|
|-0-0-0-0-0-0-0-0-|-3-3-3-3-3-3-3-3-|-----------------|-x-3-----------|
|
| >
| W                 W                 W                 W
|-----------------|-----------------|-----------------|---------------|
|-----------------|-----------------|-----------------|---------------|
|-7---------------|-----------------|-----------------|---------------|
|-----------------|-----------------|-----------------|---------------|
|-----------------|-----------------|-----------------|---------------|
|-----------------|-----------------|-----------------|---------------|


  E5                G5
  E E E E E E E E   E E E E E E E E
|-----------------|-----------------|
|-----------------|-----------------|
|-9-9-9-9-9-9-9-9-|-9-9-9-9-9-9-9-9-|
|-----------------|-----------------|
|-7-7-7-7-7-7-7-7-|-7-7-7-7-7-7-7-7-|
|-----------------|-----------------|
|
| E E E E E E E E   E E E E E E E E
|-----------------|-----------------|
|-----------------|-----------------|
|-----------------|-----------------|
|-2-2-2-2-2-2-2-2-|-5-5-5-5-5-5-5-5-|
|-2-2-2-2-2-2-2-2-|-5-5-5-5-5-5-5-5-|
|-0-0-0-0-0-0-0-0-|-3-3-3-3-3-3-3-3-|
|
| Gtr IV
| E E E E E E E E   E E E E E E E E
|-----------------|-----------------|
|-8p0-0-7p0-0-3p0-|-8p0-0-7p0-0-3p0-|
|-----------------|-----------------|
|-----------------|-----------------|
|-----------------|-----------------|
|-----------------|-----------------|


  C5                D5
  E E E E E E E E    E  E  E  E  E  E  E  E
|-----------------|-------------------------|
|-----------------|-------------------------|
|-9-9-9-9-9-9-9-9-|-11-11-11-11-11-11-11-11-|
|-----------------|-------------------------|
|-7-7-7-7-7-7-7-7-|--9--9--9--9--9--9--9--9-|
|-----------------|-------------------------|
|
| E E E E E E E E    E  E  E  E  E  E  E  E
|-----------------|-------------------------|
|-----------------|-------------------------|
|-5-5-5-5-5-5-5-5-|--7--7--7--7--7--7--7--7-|
|-5-5-5-5-5-5-5-5-|--7--7--7--7--7--7--7--7-|
|-3-3-3-3-3-3-3-3-|--5--5--5--5--5--5--5--5-|
|-----------------|-------------------------|
|
| E E E E E E E E    Q     Q     Q     Q
|-----------------|-------------------------|
|-3p0-0-5p0-0-5p0-|--------8-----7----------|
|-----------------|--------------------7----|
|-----------------|-------------------------|
|-----------------|-------------------------|
|-----------------|-------------------------|


  E5                G5                C5                  G5 D5
  E E E E E E E E   E E E E E E E E   E E E E E E E E   E Q  Q  E E  E
|-----------------|-----------------|-----------------|-----------------|
|-----------------|-----------------|-----------------|-----------------|
|-9-9-9-9-9-9-9-9-|-9-9-9-9-9-9-9-9-|-9-9-9-9-9-9-9-9-|------7--7-7--7--|
|-----------------|-----------------|-----------------|-x-5--7--7-7--7--|
|-7-7-7-7-7-7-7-7-|-7-7-7-7-7-7-7-7-|-7-7-7-7-7-7-7-7-|-x-5--5--5-5--5--|
|-----------------|-----------------|-----------------|-x-3-------------|
|
| E E E E E E E E   E E E E E E E E   E E E E E E E E   E Q  Q  E E  E
|-----------------|-----------------|-----------------|-----------------|
|-----------------|-----------------|-----------------|-----------------|
|-----------------|-----------------|-5-5-5-5-5-5-5-5-|------7--7-7--7--|
|-2-2-2-2-2-2-2-2-|-5-5-5-5-5-5-5-5-|-5-5-5-5-5-5-5-5-|-x-5--7--7-7--7--|
|-2-2-2-2-2-2-2-2-|-5-5-5-5-5-5-5-5-|-3-3-3-3-3-3-3-3-|-x-5--5--5-5--5--|
|-0-0-0-0-0-0-0-0-|-3-3-3-3-3-3-3-3-|-----------------|-x-3-------------|
|
| E E E E E E E E   E E E E E E E E   E E E E E E E E   E Q  H      +E
|-----------------|-----------------|-----------------|-----------------|
|-8p0-0-7p0-0-3p0-|-8p0-0-7p0-0-3p0-|-3p0-0-5p0-0-5p0-|---8--7------(7)-|
|-----------------|-----------------|-----------------|-----------------|
|-----------------|-----------------|-----------------|-----------------|
|-----------------|-----------------|-----------------|-----------------|
|-----------------|-----------------|-----------------|-----------------|


 Outro
  C5                  G5 D5         C5                  G5 D5
  E E E E E E E E   E Q  Q  E E E   E E E E E E E E   E Q  Q  E E E
|-----------------|---------------|-----------------|---------------|
|-----------------|---------------|-----------------|---------------|
|-9-9-9-9-9-9-9-9-|------7--7-7-7-|-9-9-9-9-9-9-9-9-|------7--7-7-7-|
|-----------------|-x-5--7--7-7-7-|-----------------|-x-5--7--7-7-7-|
|-7-7-7-7-7-7-7-7-|-x-5--5--5-5-5-|-7-7-7-7-7-7-7-7-|-x-5--5--5-5-5-|
|-----------------|-x-3-----------|-----------------|-x-3-----------|
|
| E E E E E E E E   E Q  Q  E E E   E E E E E E E E   E Q  Q  E E E
|-----------------|---------------|-----------------|---------------|
|-----------------|---------------|-----------------|---------------|
|-5-5-5-5-5-5-5-5-|------7--7-7-7-|-5-5-5-5-5-5-5-5-|------7--7-7-7-|
|-5-5-5-5-5-5-5-5-|-x-5--7--7-7-7-|-5-5-5-5-5-5-5-5-|-x-5--7--7-7-7-|
|-3-3-3-3-3-3-3-3-|-x-5--5--5-5-5-|-3-3-3-3-3-3-3-3-|-x-5--5--5-5-5-|
|-----------------|-x-3-----------|-----------------|-x-3-----------|


  C5                  G5 D5         C5                  G5 D5
  E E E E E E E E   E Q  Q  E E E   E E E E E E E E   E Q  Q  E E E
|-----------------|---------------|-----------------|---------------|
|-----------------|---------------|-----------------|---------------|
|-9-9-9-9-9-9-9-9-|------7--7-7-7-|-9-9-9-9-9-9-9-9-|------7--7-7-7-|
|-----------------|-x-5--7--7-7-7-|-----------------|-x-5--7--7-7-7-|
|-7-7-7-7-7-7-7-7-|-x-5--5--5-5-5-|-7-7-7-7-7-7-7-7-|-x-5--5--5-5-5-|
|-----------------|-x-3-----------|-----------------|-x-3-----------|
|
| E E E E E E E E   E Q  Q  E E E   E E E E E E E E   E Q  Q  E E E
|-----------------|---------------|-----------------|---------------|
|-----------------|---------------|-----------------|---------------|
|-5-5-5-5-5-5-5-5-|------7--7-7-7-|-5-5-5-5-5-5-5-5-|------7--7-7-7-|
|-5-5-5-5-5-5-5-5-|-x-5--7--7-7-7-|-5-5-5-5-5-5-5-5-|-x-5--7--7-7-7-|
|-3-3-3-3-3-3-3-3-|-x-5--5--5-5-5-|-3-3-3-3-3-3-3-3-|-x-5--5--5-5-5-|
|-----------------|-x-3-----------|-----------------|-x-3-----------|


  E5
                 >
   W            +W             +W             +W
|------------|--------------|--------------|----------*|
|------------|--------------|--------------|----------*|
|--9---------|--(9)---------|--(9)---------|--(9)-----*|
|------------|--------------|--------------|----------*|
|--7---------|--(7)---------|--(7)---------|--(7)-----*|
|------------|--------------|--------------|----------*|
|
|                >
|  W            +W             +W             +W
|------------|--------------|--------------|----------*|
|------------|--------------|--------------|----------*|
|------------|--------------|--------------|----------*|
|--2---------|--(2)---------|--(2)---------|--(2)-----*|
|--2---------|--(2)---------|--(2)---------|--(2)-----*|
|--0---------|--(0)---------|--(0)---------|--(0)-----*|
|
| Gtr IV
|                               >
|  W            +W             +W             +W
|------------|--------------|--------------|----------*|
|------------|--------------|--------------|----------*|
|-<5>--------|-(<5>)--------|-(<5>)--------|-(<5>)----*|
|------------|--------------|--------------|----------*|
|------------|--------------|--------------|----------*|
|------------|--------------|--------------|----------*|



Duration Legend
---------------
W - whole; H - half; Q - quarter; E - 8th; S - 16th; T - 32nd; X - 64th; a - acciaccatura
+ - note tied to previous; . - note dotted; .. - note double dotted
Uncapitalized letters represent notes that are staccato (1/2 duration)
Irregular groupings are notated above the duration line
Duration letters will always appear directly above the note/fret number it represents the
duration for.  Duration letters with no fret number below them represent rests.  Multi-
bar rests are notated in the form Wxn, where n is the number of bars to rest for.  Low
melody durations appear below the staff

Tablature Legend
----------------
 h   - hammer-on
 p   - pull-off
 b   - bend
 pb  - pre-bend
 r   - bend release (if no number after the r, then release immediately)
 /\  - slide into or out of (from/to "nowhere")
 s   - legato slide
 S   - shift slide
 - natural harmonic
[n]  - artificial harmonic
n(n) - tapped harmonic
 ~   - vibrato
 tr  - trill
 T   - tap
 TP  - trem. picking
 PM  - palm muting
\n/  - tremolo bar dip; n = amount to dip
 \n  - tremolo bar down
 n/  - tremolo bar up
/n\  - tremolo bar inverted dip
 =   - hold bend; also acts as connecting device for hammers/pulls
 <> - volume swell (louder/softer)
 x   - on rhythm slash represents muted slash
 o   - on rhythm slash represents single note slash

Misc Legend
-----------
 |  - bar
||  - double bar
||o - repeat start
o|| - repeat end
*|  - double bar (ending)
 :  - bar (freetime)
 $  - Segno
 &  - Coda
Tempo markers -  = BPM(8/16=s8/s16), where s8 = swing 8ths, s16 = swing 16ths
Comments