Rise Against - Chamber The Cartridge Chords & Tabs

 

Chamber The Cartridge Chords & Tabs

Rise Against Chords & Tabs

Version: 2 Type: Tab

Chamber The Cartridge Tab

Artist : Rise Against
Song : Chamber The Cartridge
Album : The Sufferer & The Witness
Tabbed By : Aaron Kunde

Tuning : Drop D

x = don't play
/ = pick slide
. = palm muted

Intro ( Lead )                                                 ( rhythm and lead )
|---------------------------------------------------------|x2 |-------------------|
|---------------------------------------------------------|   |-------------------|
|-5--7-8--7-8-10-8-7-8-7-5-3-5--7-8--7-8-10-8-7-12-10-8-7-|   |-------------------|
|-x--x-x--x-x--x-x-x-x-x-x-x-x--x-x--x-x--x-x-x--x--x-x-x-|   |-/////////////////-|
|-3--5-6--5-6--8-6-5-6-5-3-1-3--5-6--5-6--8-6-5-10--8-6-5-|   |-/////////////////-|
|---------------------------------------------------------|   |-/////////////////-|
                                                                   ^pick slide
Verse ( both guitars )
|-----------------------------------------------------|x2
|-----------------------------------------------------|
|-----------------------------------------------------|
|-55555-55555--------------3-55555--55555-------------|
|-333333333333-66666-11111-1-333333-333333-66666-1-11-|
|------3-----3-66666-11111--------3------3-66666-1-11-|

Pre Chorus ( Both Guitars )
|----------------------------------------------------------------------------------------------------|
|----------------------------------------------------------------------------------------------------|
|----------------------------------------------------------------------------------------------------|
|------------------------------------------10------------------------------------------------8-------|
|-------------------------------------------x------------------------------------------------6-6-3-5-|
|-5-55-6-5-55-6-5-55-6-5-55-6-5-55-6-5-55-6-8------5-55-6-5-55-6-5-55-6-5-55-6-5-55-6-5-55-6---6-3-5-|

Chorus ( lead )
|----------------------------------------------------------------------------------|x4
|----------------------------------------------------------------------------------|
|-12-12-12-12-12-12-12-12-13-13-13-13-13-13-13-13-8-8-8-8-8-8-8-8-7-7-7-7-8-10-8-7-|
|--x--x--x--x--x--x--x--x--x--x--x--x--x--x--x--x-x-x-x-x-x-x-x-x-x-x-x-x-x--x-x-x-|
|-10-10-10-10-10-10-10-10-11-11-11-11-11-11-11-11-6-6-6-6-6-6-6-6-5-5-5-5-6--8-6-5-|
|----------------------------------------------------------------------------------|

( rhythm )
|----------------------------------------------|x4
|----------------------------------------------|
|----------------------------------------------|
|-5-555555555------------------------333333333-|
|-3-333333333-6-66666666-1-111111111-111111111-|
|-------------6-66666666-1-111111111-----------|

Fill ( both guitars )
|----------------------------------------------------|
|----------------------------------------------------|
|-------------------17171717171717171717171717171717-|
|-5-5-5-55-5-5-5-55--x-x-x-x-x-x-x-x-x-x-x-x-x-x-x-x-|
|-3-3-3-33-3-3-3-33-15151515151515151515151515151515-|
|----------------------------------------------------|

Verse ( both guitars )
|-----------------------------------------------------|x2
|-----------------------------------------------------|
|-----------------------------------------------------|
|-55555-55555--------------3-55555--55555-------------|
|-333333333333-66666-11111-1-333333-333333-66666-1-11-|
|------3-----3-66666-11111--------3------3-66666-1-11-|

Pre Chorus ( Both Guitars )
|----------------------------------------------------------------------------------------------------|
|----------------------------------------------------------------------------------------------------|
|----------------------------------------------------------------------------------------------------|
|------------------------------------------10------------------------------------------------8-------|
|-------------------------------------------x------------------------------------------------6-6-3-5-|
|-5-55-6-5-55-6-5-55-6-5-55-6-5-55-6-5-55-6-8------5-55-6-5-55-6-5-55-6-5-55-6-5-55-6-5-55-6---6-3-5-|
[ Tab from: http://www.guitartabs.cc/tabs/r/rise_against/chamber_the_cartridge_tab_ver_2.html ]
Chorus ( lead )
|----------------------------------------------------------------------------------|x4 |---|
|----------------------------------------------------------------------------------|   |---|
|-12-12-12-12-12-12-12-12-13-13-13-13-13-13-13-13-8-8-8-8-8-8-8-8-7-7-7-7-8-10-8-7-|   |---|
|--x--x--x--x--x--x--x--x--x--x--x--x--x--x--x--x-x-x-x-x-x-x-x-x-x-x-x-x-x--x-x-x-|   |-5-|
|-10-10-10-10-10-10-10-10-11-11-11-11-11-11-11-11-6-6-6-6-6-6-6-6-5-5-5-5-6--8-6-5-|   |-3-|
|----------------------------------------------------------------------------------|   |---|
                                                                                         ^end on
( rhythm )
|----------------------------------------------|x4|---|
|----------------------------------------------|  |---|
|----------------------------------------------|  |---|
|-5-555555555------------------------333333333-|  |-5-|
|-3-333333333-6-66666666-1-111111111-111111111-|  |-3-|
|-------------6-66666666-1-111111111-----------|  |---|
                                                    ^end on

Interlude ( lead )
|----------------------------------------------------------------------------------|
|----------------------------------------------------------------------------------|  
|---------------------------------10101010-----------------------------------------|
|-5-5-5-55-8-8-8-8-----------8888-10101010--5-5-5-55-8-8-8-8-----------3-----------|
|-3-3-3-33-6-6-6-68-3-3-3-33-6666--8-8-8-8--3-3-3-33-6-6-6-68-3-3-3-33-1-1-3-6-5-6-|
|-----------------8-3-3-3-33--------------------------------8-3-3-3-33---1-3-6-5-6-|
                                                                       . . . . . . 
( rhythm )                                                                     
|----------------------------------------------------------------------------------|
|----------------------------------------------------------------------------------|
|----------------------------------------------------------------------------------|
|-5-----------------------------------------5--------------------------3-----------|
|-3-----------------------------------------3--------------------------1-1-3-6-5-6-|
|------------------------------------------------------------------------1-3-6-5-6-|
                                                                       . . . . . .
Interlude 2 ( lead )
|-------------------------------------------------------------------------|x4
|-------------------------------------------------------------------------|
|-5-5-5-5-5-5-5-5-8-8-8-8-8-8-8-8-10-10-10-10-10-10-10-10-8-8-8-8-7-7-7-7-|
|-x-x-x-x-x-x-x-x-x-x-x-x-x-x-x-x--x--x--x--x--x--x--x--x-x-x-x-x-x-x-x-x-|
|-3-3-3-3-3-3-3-3-6-6-6-6-6-6-6-6--8--8--8--8--8--8--8--8-6-6-6-6-5-5-5-5-|
|-------------------------------------------------------------------------|

( rhythm )
|----------------------------------------------------------------------------------|x2
|----------------------------------------------------------------------------------|  
|---------------------------------10101010-----------------------------------------|
|-5-5-5-55-8-8-8-8-----------8888-10101010--5-5-5-55-8-8-8-8-----------3-----------|
|-3-3-3-33-6-6-6-68-3-3-3-33-6666--8-8-8-8--3-3-3-33-6-6-6-68-3-3-3-33-1-1-3-6-5-6-|
|-----------------8-3-3-3-33--------------------------------8-3-3-3-33---1-3-6-5-6-|

Interlude 3 ( Lead )                                          
|---------------------------------------------------------|x1 |-------------------|
|---------------------------------------------------------|   |-------------------|
|-5--7-8--7-8-10-8-7-8-7-5-3-5--7-8--7-8-10-8-7-12-10-8-7-|   |-------------------|
|-x--x-x--x-x--x-x-x-x-x-x-x-x--x-x--x-x--x-x-x--x--x-x-x-|   |-/////////////////-|
|-3--5-6--5-6--8-6-5-6-5-3-1-3--5-6--5-6--8-6-5-10--8-6-5-|   |-/////////////////-|
|---------------------------------------------------------|   |-/////////////////-|

( rhythm )                                                         ^pick slide
|---------------------------------------------------------|   |-------------------|  
|---------------------------------------------------------|   |-------------------|
|---------------------------------------------------------|   |-------------------|
|-5-------------------------------------------------------|   |-/////////////////-|
|-3-------------------------------------------------------|   |-/////////////////-|
|---------------------------------------------------------|   |-/////////////////-|
                                                                   ^pick slide
Chorus ( lead )
|----------------------------------------------------------------------------------|x3 |---|
|----------------------------------------------------------------------------------|   |---|
|-12-12-12-12-12-12-12-12-13-13-13-13-13-13-13-13-8-8-8-8-8-8-8-8-7-7-7-7-8-10-8-7-|   |---|
|--x--x--x--x--x--x--x--x--x--x--x--x--x--x--x--x-x-x-x-x-x-x-x-x-x-x-x-x-x--x-x-x-|   |-5-|
|-10-10-10-10-10-10-10-10-11-11-11-11-11-11-11-11-6-6-6-6-6-6-6-6-5-5-5-5-6--8-6-5-|   |-3-|
|----------------------------------------------------------------------------------|   |---|
                                                                                         ^end on
( rhythm )
|----------------------------------------------|x4|---|
|----------------------------------------------|  |---|
|----------------------------------------------|  |---|
|-5-555555555------------------------333333333-|  |-5-|
|-3-333333333-6-66666666-1-111111111-111111111-|  |-3-|
|-------------6-66666666-1-111111111-----------|  |---|
                                                    ^end on