Rise Against - Blood To Bleed Chords & Tabs

 

Blood To Bleed Chords & Tabs

Rise Against Chords & Tabs

Version: 3 Type: Tab 0 ratings
1 star 2 stars 3 stars 4 stars 5 stars
comments

Blood To Bleed Tab

k well the solo dude had it pretty good but had a couple mistakes so heres the correct version...
   Standard Tuning   
Tabbed by Greg Gardner

e|----------------------------------------------------------------------|
B|--999999----------------12-12-12-12-----14----------------------------|
G|---------6-8-9-11-9-8----------------14----13-/6-/8-/9-/11-9999-11-9-8|
D|----------------------------------------------------------------------|
A|----------------------------------------------------------------------|
E|----------------------------------------------------------------------|
[ Tab from: http://www.guitartabs.cc/tabs/r/rise_against/blood_to_bleed_tab_ver_3.html ]
e|-----------------------------12-12-12-12----12-11---------------------|
B|--99999-10-12-12-12-12-12-12-------------14-------12-14-14-14-14-12-10|
G|----------------------------------------------------------------------|
D|----------------------------------------------------------------------|
A|----------------------------------------------------------------------|
E|----------------------------------------------------------------------|

e|----------------------------------------------------------------------|
B|--999999-10-9---------------------------------------------------------|
G|--------------99999-11-9-8--------------------------------------------|
D|----------------------------------------------------------------------|
A|----------------------------------------------------------------------|
E|----------------------------------------------------------------------|

There you go enjoy!
Comments