Rise Against - Blood Red White And Blue Chords & Tabs

 

Blood Red White And Blue Chords & Tabs

Rise Against Chords & Tabs

Version: 1 Type: Bass Tab 0 ratings
1 star 2 stars 3 stars 4 stars 5 stars
comments

Blood Red White And Blue Bass Tab

Rise Against - blood red,white and blue

intro
------------------------------5---------|
----------------------------------------| X4
-6-6-6-------6-6-6---8-------9---4------|
-------1-1-1-------------------------6--|

----
----
-6--
----

pre-verse                       |play from here
--------------------------------------------------------|
------10--------10---------10---------------------------|
-----6---------6---9------------4-4-4-4-4-4-4-4-4-4-4-4-|
-6-7----7--6-7--------6-7----7--------------------------|

verse
------------------------------------------------------------------------|
------10--------10---------10--------------10--------10---------10------|
-----6---------6---9------6-----4--4------6---------6---9------6-----4--|
-6-7----7--6-7--------6-7----7--------6-7----7--6-7--------6-7----7-----|

-----------------------------|
-----------------------------|
-----------------------------|
-4-6-6-4-6-6-4-6-6-6-4-2-1-0-|

chorus

-----------------------------------------------------------|
-----------------------------------------------------------|
---------2------------------------2------------------------|
-0--------------2-----4----0-------------2------4----------|

--------------------------------------------------------------|
--------------------------------------------------------------|
---------2------------------------2---------------------------|
-0--------------2-----4----0-------------2------4----------0--|

restart from pre-verse
[ Tab from: http://www.guitartabs.cc/tabs/r/rise_against/blood_red_white_and_blue_btab.html ]
bridge  (dont know how this one works, but has something to do with this...)
-----------------------------------------------------------------------|
-----------------------------------------------------------------------|
-12-12-13-13-12-12-10-10--9--9-10-10--9--9-7-7-12-12-13-13-12-12-10-10-|
-----------------------------------------------------------------------|

----------------------------------------------------------------------------|
----------------------------------------------------------------------------|
---9--9-10-10-7-7-7-7--12-12-13-13-12-12-10-10--9--9-10-10--9--9-7-7-----4--|
----------------------------------------------------------------------7-----|

(X2)
-----------------------------------------------------------------------|
-----------------------------------------------------------------------|
-12-12-13-13-12-12-10-10--9--9-10-10--9--9-7-7-12-12-13-13-12-12-10-10-|
-----------------------------------------------------------------------|

----------------------------------------------------------------------------|
----------------------------------------------------------------------------|
---9--9-10-10-7-7-7-7--12-12-13-13-12-12-10-10--9--9-10-10--9--9-7-7-----4--|
----------------------------------------------------------------------7-----|

----
----
-6--
----

---------------------------------------------------------------|
---------------------------------------------------------------|
-6-----6---9--6-----4--4--6-----6---9--6-----4--------------6--|
----7------------7-----------7------------7-----4-6-6-4-6-6----|
Comments