Rise Against - Black Masks And Gasoline Chords & Tabs

 

Black Masks And Gasoline Chords & Tabs

Rise Against Chords & Tabs

Version: 5 Type: Tab 0 ratings
1 star 2 stars 3 stars 4 stars 5 stars
comments

Black Masks And Gasoline Tab

Rise Against - Black Masks and Gasoline

Tabs by Punkwolf

e|--------------------|--------------------|
B|--------------------|--------------------|
G|--2---2-4---4-6-----|--2---2-4---4-6-----|
D|--2-2-2-4-4-4-6-6~--|--2-2-2-4-4-4-6-6~--|
A|--0-2-0-2-4-2-4-6~--|--0-2-0-2-4-2-4-6~--|
E|----0-----2-----4~--|----0-----2-----4~--|

e|--4---------------------7------------------------|
B|--4----------9----------7----------11------------|
G|--4----------9----------8----------11------------|
D|--6----------9----------9----------11------------|
A|--6----------7----------9-----------9------------|
E|--4---------------------7------------------------|
Simply because you can breathe, doesn't mean you're alive or that you really live

e|--4---------------------7------------------------|
B|--4----------9----------7----------11------------|
G|--4----------9----------8----------11------------|
D|--6----------9----------9----------11------------|
A|--6----------7----------9-----------9------------|
E|--4---------------------7------------------------|
This life has taken its toll, she just doesn't know how much more she can give

e|--4---------------------7------------------------|
B|--4----------9----------7----------11------------|
G|--4----------9----------8----------11------------|
D|--6----------9----------9----------11------------|
A|--6----------7----------9-----------9------------|
E|--4---------------------7------------------------|
But here, at the top of the world, where I raise my hand and I clench my fist

e|--4---------------------7------------------------|
B|--4----------9----------7----------11------------|
G|--4----------9----------8----------11------------|
D|--6----------9----------9----------11------------|
A|--6----------7----------9-----------9------------|
E|--4---------------------7------------------------|
They stand before me bellow, demanding the answers with flicks of a switch

e|-------------------------------------------------|
B|-------------------------------------------------|
G|--9-9-9-9-9-9-9-9-9-9----------------------------|
D|--9-9-9-9-9-9-9-9-9-9-99-4-4-4-4-4-4-4-4-4-4-55--|
A|--7-7-7-7-7-7-7-7-7-7-99-4-4-4-4-4-4-4-4-4-4-55--|
E|----------------------77-2-2-2-2-2-2-2-2-2-2-33--|

e|----------------------------------------------------|
B|----------------------------------------------------|
G|--------------11-11-11-11-11-11-9-9-9-9-9-9-8-9-11--|
D|--6-6-6-6-6-6-11-11-11-11-11-11-9-9-9-9-9-9-8-9-11--|
A|--6-6-6-6-6-6--9--9--9--9--9--9-7-7-7-7-7-7-6-7--9--|
E|--4-4-4-4-4-4---------------------------------------|
I don't understand where you got this idea

e|---------------------------------------------------|
B|---------------------------------------------------|
G|--------------11-11-11-11-11-11-9-9-9-9-9-9-8-6-4--|
D|--6-6-6-6-6-6-11-11-11-11-11-11-9-9-9-9-9-9-8-6-4--|
A|--6-6-6-6-6-6--9--9--9--9--9--9-7-7-7-7-7-7-6-4-2--|
E|--4-4-4-4-4-4--------------------------------------|
So deeply engrained in your head (that this world)

e|----------------------------------------------------|
B|----------------------------------------------------|
G|--------------11-11-11-11-11-11-9-9-9-9-9-9-8-9-11--|
D|--6-6-6-6-6-6-11-11-11-11-11-11-9-9-9-9-9-9-8-9-11--|
A|--6-6-6-6-6-6--9--9--9--9--9--9-7-7-7-7-7-7-6-7--9--|
E|--4-4-4-4-4-4---------------------------------------|
Is something that you must impress

e|--------------------------------------------------------------------|
B|--------------------------------------------------------------------|
G|--------------11-11-11-11-11-11-99-88-66-44-------------------------|
D|--6-6-6-6-6-6-11-11-11-11-11-11-------------4-4-4-4-4-4-4-4-4-4-55--|
A|--6-6-6-6-6-6--9--9--9--9--9--9-77-66-44-22-4-4-4-4-4-4-4-4-4-4-55--|
E|--4-4-4-4-4-4-------------------------------2-2-2-2-2-2-2-2-2-2-33--|
Cuz I couldn't care less

e|--4---------------------7------------------------|
B|--4----------9----------7----------11------------|
G|--4----------9----------8----------11------------|
D|--6----------9----------9----------11------------|
A|--6----------7----------9-----------9------------|
E|--4---------------------7------------------------|
A need for revolution rises, it comes to the surface gasping for air

e|--4---------------------7------------------------|
B|--4----------9----------7----------11------------|
G|--4----------9----------8----------11------------|
D|--6----------9----------9----------11------------|
A|--6----------7----------9-----------9------------|
E|--4---------------------7------------------------|
I will not put it up with this planet one more day, much less one more year

e|-------------------------------------------------|
B|-------------------------------------------------|
G|--9-9-9-9-9-9-9-9-9-9----------------------------|
D|--9-9-9-9-9-9-9-9-9-9-99-4-4-4-4-4-4-4-4-4-4-55--|
A|--7-7-7-7-7-7-7-7-7-7-99-4-4-4-4-4-4-4-4-4-4-55--|
E|----------------------77-2-2-2-2-2-2-2-2-2-2-33--|
[ Tab from: http://www.guitartabs.cc/tabs/r/rise_against/black_masks_and_gasoline_tab_ver_5.html ]
e|----------------------------------------------------|
B|----------------------------------------------------|
G|--------------11-11-11-11-11-11-9-9-9-9-9-9-8-9-11--|
D|--6-6-6-6-6-6-11-11-11-11-11-11-9-9-9-9-9-9-8-9-11--|
A|--6-6-6-6-6-6--9--9--9--9--9--9-7-7-7-7-7-7-6-7--9--|
E|--4-4-4-4-4-4---------------------------------------|
And I don't understand where you got this idea

e|---------------------------------------------------|
B|---------------------------------------------------|
G|--------------11-11-11-11-11-11-9-9-9-9-9-9-8-6-4--|
D|--6-6-6-6-6-6-11-11-11-11-11-11-9-9-9-9-9-9-8-6-4--|
A|--6-6-6-6-6-6--9--9--9--9--9--9-7-7-7-7-7-7-6-4-2--|
E|--4-4-4-4-4-4--------------------------------------|
So deeply engrained in your head (that this world)

e|----------------------------------------------------|
B|----------------------------------------------------|
G|--------------11-11-11-11-11-11-9-9-9-9-9-9-8-9-11--|
D|--6-6-6-6-6-6-11-11-11-11-11-11-9-9-9-9-9-9-8-9-11--|
A|--6-6-6-6-6-6--9--9--9--9--9--9-7-7-7-7-7-7-6-7--9--|
E|--4-4-4-4-4-4---------------------------------------|
Is something that you must impress

e|--------------------------------------------------------------------|
B|--------------------------------------------------------------------|
G|--------------11-11-11-11-11-11-99-88-66-44-------------------------|
D|--6-6-6-6-6-6-11-11-11-11-11-11-------------4-4-4-4-4-4-4-4-4-4-55--|
A|--6-6-6-6-6-6--9--9--9--9--9--9-77-66-44-22-4-4-4-4-4-4-4-4-4-4-55--|
E|--4-4-4-4-4-4-------------------------------2-2-2-2-2-2-2-2-2-2-33--|
Cuz I couldn't care less

e|-------------------------------------------|
B|-------------------------------------------|
G|--------------------------------44----666--|
D|--6-6-6-6---6-6-6-6---6-6-6-6---44-44-666--|
A|--6-6-6-6---6-6-6-6---6-6-6-6---22-44-444--|
E|--4-4-4-4---4-4-4-4---4-4-4-4------22------|
So here and now, in our rotting nation

e|---------------------------------------------|
B|--------------------------------*-*-*-*-*-*--|
G|--------------------------------4-4-4-6-6-6--|
D|--6-6-6-6---6-6-6-6---6-6-6-6---4-4-4-6-6-6--|
A|--6-6-6-6---6-6-6-6---6-6-6-6---2-2-2-4-4-4--|
E|--4-4-4-4---4-4-4-4---4-4-4-4----------------|
The bond, it binds, it's all on our hands now

e|-------------------------------------------|
B|-------------------------------------------|
G|--------------------------------44----666--|
D|--6-6-6-6---6-6-6-6---6-6-6-6---44-44-666--|
A|--6-6-6-6---6-6-6-6---6-6-6-6---22-44-444--|
E|--4-4-4-4---4-4-4-4---4-4-4-4------22------|
We live in fear of our own potential

e|------------------------------------------------|
B|--------------------------------*-*-*-*-*-*-----|
G|--------------------------------4-4-4-6-6-6-----|
D|--6-6-6-6---6-6-6-6---6-6-6-6---4-4-4-6-6-6-6~--|
A|--6-6-6-6---6-6-6-6---6-6-6-6---2-2-2-4-4-4-6~--|
E|--4-4-4-4---4-4-4-4---4-4-4-4---------------4~--|
To win, to lose, it's all on our hands now

And I have an american dream but it envolves black masks and gasoline

e|--4---------------------7------------------------|
B|--4----------9----------7----------11------------|
G|--4----------9----------8----------11------------|
D|--6----------9----------9----------11------------|
A|--6----------7----------9-----------9------------|
E|--4---------------------7------------------------|
One day I'll turn these thoughts into screams at a world that turned its back down on me

e|-------------------------------------------------|
B|-------------------------------------------------|
G|--9-9-9-9-9-9-9-9-9-9----------------------------|
D|--9-9-9-9-9-9-9-9-9-9-99-4-4-4-4-4-4-4-4-4-4-55--|
A|--7-7-7-7-7-7-7-7-7-7-99-4-4-4-4-4-4-4-4-4-4-55--|
E|----------------------77-2-2-2-2-2-2-2-2-2-2-33--|

e|----------------------------------------------------|
B|----------------------------------------------------|
G|--------------11-11-11-11-11-11-9-9-9-9-9-9-8-9-11--|
D|--6-6-6-6-6-6-11-11-11-11-11-11-9-9-9-9-9-9-8-9-11--|
A|--6-6-6-6-6-6--9--9--9--9--9--9-7-7-7-7-7-7-6-7--9--|
E|--4-4-4-4-4-4---------------------------------------|
I don't understand where you got this idea

e|---------------------------------------------------|
B|---------------------------------------------------|
G|--------------11-11-11-11-11-11-9-9-9-9-9-9-8-6-4--|
D|--6-6-6-6-6-6-11-11-11-11-11-11-9-9-9-9-9-9-8-6-4--|
A|--6-6-6-6-6-6--9--9--9--9--9--9-7-7-7-7-7-7-6-4-2--|
E|--4-4-4-4-4-4--------------------------------------|
So deeply engrained in your head (that this world)

e|----------------------------------------------------|
B|----------------------------------------------------|
G|--------------11-11-11-11-11-11-9-9-9-9-9-9-8-9-11--|
D|--6-6-6-6-6-6-11-11-11-11-11-11-9-9-9-9-9-9-8-9-11--|
A|--6-6-6-6-6-6--9--9--9--9--9--9-7-7-7-7-7-7-6-7--9--|
E|--4-4-4-4-4-4---------------------------------------|
Is something that you must impress

e|-----------------------------------------------------------------------|
B|-----------------------------------------------------------------------|
G|--------------11-11-11-11-11-11-99-88-66-44----------------------------|
D|--6-6-6-6-6-6-11-11-11-11-11-11-------------4-4-4-4-4-4-4-4-4-4-55-6~--|
A|--6-6-6-6-6-6--9--9--9--9--9--9-77-66-44-22-4-4-4-4-4-4-4-4-4-4-55-6~--|
E|--4-4-4-4-4-4-------------------------------2-2-2-2-2-2-2-2-2-2-33-4~--|
Cuz I couldn't care less

* Palm mute
~ Let ring
Comments