Rise Against - Black Masks And Gasoline Chords & Tabs

 

Black Masks And Gasoline Chords & Tabs

Rise Against Chords & Tabs

Version: 4 Type: Tab 0 ratings
1 star 2 stars 3 stars 4 stars 5 stars
comments

Black Masks And Gasoline Tab

Itīs 100% correct. Have seen Rise Against Live...

Intro (x2)
e||----------------------------------------------------------------------|
H||----------------------------------------------------------------------|
G||-------4-------6------------------------------------------------------|
D||-4-2-4-4-4-2-4-6-6----------------------------------------------------|
A||-4-2-4-2-4-2-4-4-6----------------------------------------------------|
E||-2-0-2---2-0-2---4----------------------------------------------------|

Verse (4x)
e||----------------------------------------------------------------------|
H||----------------------------------------------------------------------|
G||--------------99999999999--------------11111111111111111111111--------|
D||-666666666666-99999999999-999999999999-11111111111111111111111--------|
A||-666666666666-77777777777-999999999999-9-9-9-9-9-9-9-9-9-9-9-9--------|
E||-444444444444-------------777777777777--------------------------------|

Pre chorus
e||----------------------------------------------------------------------|
H||----------------------------------------------------------------------|
G||-999999999-8----------------------------------------------------------|
D||-999999999-8-44444-55-------------------------------------------------|
A||-777777777-6-44444-55-------------------------------------------------|
E||-------------22222-33-------------------------------------------------|
pm               x  x

Chorus 1st and 3rd Time
e||----------------------------------------------------------------------|
H||----------------------------------------------------------------------|
G||--------111111111111-999999-99-88-99-88-------------------------------|
D||-666666-111111111111-999999-99-88-99-88-------------------------------|
A||-666666-9-9-9-9-9-9--777777-77-66-77-66-------------------------------|
E||-444444---------------------------------------------------------------|

Chorus 2nd time
e||----------------------------------------------------------------------|
H||----------------------------------------------------------------------|
G||--------111111111111-999999-999-888-666-------------------------------|
D||-666666-111111111111-999999-999-888-666-------------------------------|
A||-666666-9-9-9-9-9-9--777777-777-666-444-------------------------------|
E||-444444---------------------------------------------------------------|

Chorus 4th Time
e||----------------------------------------------------------------------|
H||----------------------------------------------------------------------|
G||---------11111111111-999-888-666-444----------------------------------|
D||-666666--11111111111-999-888-666-444-444444444-555--------------------|
A||-666666--9-9-9-9-9-9-777-666-444-222-444444444-555--------------------|
E||-444444------------------------------222222222-333--------------------|

Verse (2x)
e||----------------------------------------------------------------------|
H||----------------------------------------------------------------------|
G||--------------99999999999--------------11111111111111111111111--------|
D||-666666666666-99999999999-999999999999-11111111111111111111111--------|
A||-666666666666-77777777777-999999999999-9-9-9-9-9-9-9-9-9-9-9-9--------|
E||-444444444444-------------777777777777--------------------------------|

BASS in 2nd time of the Verse
G||----------------------------------------------------------------------|
D||-88-99-1111/1313-1111/99-88-99-88/66/55/13131313-1414-13-11111111/2---|
A||----------------------------------------------------------------------|
E||----------------------------------------------------------------------|

Pre chorus
e||----------------------------------------------------------------------|
H||----------------------------------------------------------------------|
G||-999999999-8----------------------------------------------------------|
D||-999999999-8-44444-55-------------------------------------------------|
A||-777777777-6-44444-55-------------------------------------------------|
E||-------------22222-33-------------------------------------------------|
pm               x  x
[ Tab from: http://www.guitartabs.cc/tabs/r/rise_against/black_masks_and_gasoline_tab_ver_4.html ]
Chorus 1st and 3rd Time
e||----------------------------------------------------------------------|
H||----------------------------------------------------------------------|
G||--------111111111111-999999-99-88-99-88-------------------------------|
D||-666666-111111111111-999999-99-88-99-88-------------------------------|
A||-666666-9-9-9-9-9-9--777777-77-66-77-66-------------------------------|
E||-444444---------------------------------------------------------------|

Chorus 2nd time
e||----------------------------------------------------------------------|
H||----------------------------------------------------------------------|
G||--------111111111111-999999-999-888-666-------------------------------|
D||-666666-111111111111-999999-999-888-666-------------------------------|
A||-666666-9-9-9-9-9-9--777777-777-666-444-------------------------------|
E||-444444---------------------------------------------------------------|

Chorus 4th Time
e||----------------------------------------------------------------------|
H||----------------------------------------------------------------------|
G||---------11111111111-999-888-666-444----------------------------------|
D||-666666--11111111111-999-888-666-444-444444444-55---------------------|
A||-666666--9-9-9-9-9-9-777-666-444-222-444444444-55---------------------|
E||-444444------------------------------222222222-33---------------------|

Breakdown 2x
e||----------------------------------------------------------------------|
H||----------------------------------------------------------------------|
G||----------------------4----------------444-666------------------------|
D||-6666-6666-6666-4-2-4-4-6666-6666-6666-444-666------------------------|
A||-6666-6666-6666-4-2-4-2-6666-6666-6666-222-444------------------------|
E||-4444-4444-4444-2-0-2---4444-4444-4444--------------------------------|
pm                                      xxx xxx  

BASS Verse x2
G||---------------------------------------------------------------------|
D||-------------------------------1233333-------------------------------|
A||---------467-77777-7-6-4/22222---------------------------------------|
E||44444444-------------------------------------------------------------|

Pickslide                                        

Verse (1x)
e||---------------------------------------------------------------------|
H||---------------------------------------------------------------------|
G||--------------99999999999--------------11111111111111111111111-------|
D||-666666666666-99999999999-999999999999-11111111111111111111111-------|
A||-666666666666-77777777777-999999999999-9-9-9-9-9-9-9-9-9-9-9-9-------|
E||-444444444444-------------777777777777-------------------------------|

Pre chorus
e||----------------------------------------------------------------------|
H||----------------------------------------------------------------------|
G||-999999999-8----------------------------------------------------------|
D||-999999999-8-44444-55-------------------------------------------------|
A||-777777777-6-44444-55-------------------------------------------------|
E||-------------22222-33-------------------------------------------------|
pm               x  x

Chorus 1st and 3rd Time
e||---------------------------------------------------------------------|
H||---------------------------------------------------------------------|
G||--------111111111111-999999-99-88-99-88------------------------------|
D||-666666-111111111111-999999-99-88-99-88------------------------------|
A||-666666-9-9-9-9-9-9--777777-77-66-77-66------------------------------|
E||-444444--------------------------------------------------------------|

Chorus 2nd time
e||---------------------------------------------------------------------|
H||---------------------------------------------------------------------|
G||--------111111111111-999999-999-888-666------------------------------|
D||-666666-111111111111-999999-999-888-666------------------------------|
A||-666666-9-9-9-9-9-9--777777-777-666-444------------------------------|
E||-444444--------------------------------------------------------------|

Chorus 4th Time
e||---------------------------------------------------------------------|
H||---------------------------------------------------------------------|
G||---------11111111111-999-888-666-444---------------------------------|
D||-666666--11111111111-999-888-666-444-444444444-555-------------------|
A||-666666--9-9-9-9-9-9-777-666-444-222-444444444-555-------------------|
E||-444444------------------------------222222222-333-------------------|

End
e||--------|
H||--------|
G||--------|
D||-4-5-6--|
A||-4-5-6--|
E||-2-3-4--|
Comments