Rise Against - Architects Chords & Tabs

 

Architects Chords & Tabs

Rise Against Chords & Tabs

Version: 1 Type: Tab 0 ratings
1 star 2 stars 3 stars 4 stars 5 stars
comments

Architects Tab

   
I'm pretty sure this tab is 100% right.


INTRO
E|----
B|-11-
G|---- x32
D|-8--
A|----
E|----


Here the drums, the bass and the rhythm guitar will start.
E|------------------------------------------------|
B|-11-11-11-11-9-9-6-6-6-6-14-14-13-13--11-11-11~-|
G|-------------------------13-13-13-13--10-10-10~-|
D|-8--8--8--8--8-8-8-8-8-8--------------8--8--8~--|
A|------------------------------------------------|
E|------------------------------------------------|


RHYTHM GUITAR (Intro)
E|------------------------------------------|
B|------------------------------------------|
G|----------------------------8-8-----------|
D|-8-8-8--11--8-8-8--11--4-4--8-8--8-8-8-8--|
A|-8-8-8--11--8-8-8--11--4-4--6-6--8-8-8-8--|
E|-6-6-6--9---6-6-6--9---2-2-------6-6-6-6--|

VERSE 1
E|------------------------------------------|
B|------------------------------------------|
G|----------------------------8-8-----------|
D|-8-8-8--11--8-8-8--11--4-4--8-8--8-8-8-8--| 2x
A|-8-8-8--11--8-8-8--11--4-4--6-6--8-8-8-8--|
E|-6-6-6--9---6-6-6--9---2-2-------6-6-6-6--|


PRE-CHORUS 1 (Fill)
E|------------------------------6/8/9~-|
B|----------------------------8--------|
G|---------7-8-7----8-10-8-10----------|
D|-10-8-10-------10--------------------|
A|-------------------------------------|
E|-------------------------------------|


CHORUS 1
E|-------------------------------------------------------|
B|-------------------------------------------------------|
G|------6-6------------------------6-6-------------------|
D|-4-4--6-6--6-6--8-8---------4-4--6-6--6-6--8--6--------|
A|-4-4--4-4--6-6--8-8---------4-4--4-4--6-6--8--6--------|
E|-2-2-------4-4--6-6---------2-2-------4-4--6--4--------|


E|--------------------------|
B|--------------------------|
G|------6-6-----------------|
D|-4-4--6-6--6-6--8-8-------|
A|-4-4--4-4--6-6--8-8-------|
E|-2-2-------4-4--6-6-------|



E|------------------|
B|------------------|
G|------------------|
D|-4-4-4-4--6-6-6-6-|
A|-4-4-4-4--6-6-6-6-|
E|-2-2-2-2--4-4-4-4-|


[ Tab from: http://www.guitartabs.cc/tabs/r/rise_against/architects_tab.html ]
E|--19---19---19---19----14---14---14--|
B|--21b--21b--21b--21b---16b--16b--16b-|
G|-------------------------------------|
D|-------------------------------------|
A|-------------------------------------|
E|-------------------------------------|


VERSE 2
E|---------------------------------|
B|---------------------------------|
G|---------------------------------|
D|--6------------------------------|
A|--6------------------------------|
E|--4-------------------pickslide--|


E|------------------------------------------|
B|------------------------------------------|
G|----------------------------8-8-----------|
D|-8-8-8--11--8-8-8--11--4-4--8-8--8-8-8-8--|
A|-8-8-8--11--8-8-8--11--4-4--6-6--8-8-8-8--|
E|-6-6-6--9---6-6-6--9---2-2-------6-6-6-6--|

PRE-CHORUS 2 (Fill)
E|------------------------------6/8/9~-|
B|----------------------------8--------|
G|---------7-8-7----8-10-8-10----------|
D|-10-8-10-------10--------------------|
A|-------------------------------------|
E|-------------------------------------|


CHORUS 2
E|-------------------------------------------------------|
B|-------------------------------------------------------|
G|------6-6------------------------6-6-------------------|
D|-4-4--6-6--6-6--8-8---------4-4--6-6--6-6--8--6--------|
A|-4-4--4-4--6-6--8-8---------4-4--4-4--6-6--8--6--------|
E|-2-2-------4-4--6-6---------2-2-------4-4--6--4--------|


E|--------------------------|
B|--------------------------|
G|------6-6-----------------|
D|-4-4--6-6--6-6--8-8-------|
A|-4-4--4-4--6-6--8-8-------|
E|-2-2-------4-4--6-6-------|



E|------------------|
B|------------------|
G|------------------|
D|-4-4-4-4--6-6-6-6-|
A|-4-4-4-4--6-6-6-6-|
E|-2-2-2-2--4-4-4-4-|

BRIDGE
E|----------|
B|----------|
G|----------|
D|-6-6--6-6-| 5x
A|-6-6--6-6-|
E|-4-4--4-4-|


CHORUS 3
E|-------------------------------------------------------|
B|-------------------------------------------------------|
G|------6-6------------------------6-6-------------------|
D|-4-4--6-6--6-6--8-8---------4-4--6-6--6-6--8--6--------|
A|-4-4--4-4--6-6--8-8---------4-4--4-4--6-6--8--6--------|
E|-2-2-------4-4--6-6---------2-2-------4-4--6--4--------|


E|--------------------------|
B|--------------------------|
G|------6-6-----------------|
D|-4-4--6-6--6-6--8-8-------|
A|-4-4--4-4--6-6--8-8-------|
E|-2-2-------4-4--6-6-------|



E|------------------|
B|------------------|
G|------------------|
D|-4-4-4-4--6-6-6-6-|
A|-4-4-4-4--6-6-6-6-|
E|-2-2-2-2--4-4-4-4-|
Comments