Rise Against - 1000 Good Intentions Chords & Tabs

 

1000 Good Intentions Chords & Tabs

Rise Against Chords & Tabs

Version: 2 Type: Tab 0 ratings
1 star 2 stars 3 stars 4 stars 5 stars
comments

1000 Good Intentions Tab

                            RISE AGAINST
                         1000 GOOD INTENTIONS


STANDARD TUNING
EADGBe

intro
--------------------------------------------------------------------------|
--------------------------------------------------------------------------|
--------------------------------------------------------------------------|
-----99----99----9--------------99----99----9--------------99----99----9--|
-----77----77----7-7-7-7-5-5----77----77----7-7-5-9-9-9----77----77----7--|
--00----00----00-------------00----00----00-------------00----00----00----|

--------------------------------|
--------------------------------|
--------------------------------|
--------------------------------|x2
-7-7-7-7-5-5-9-9-9-9-9-9-9-9----|
--------------------------------|

chorus
---------------------------------------------------------------------------|
---------------------------------------------------------------------------|
------------------------------------------9-9-9-9-9-9-9-9-9-9-9-9-9-9-9-9--|
--10-10-10-10-10-10-10-10-7-7-7-7-7-7-7-7-9-9-9-9-9-9-9-9-9-9-9-9-9-9-9-9--|
--10-10-10-10-10-10-10-10-7-7-7-7-7-7-7-7-7-7-7-7-7-7-7-7-7-7-7-7-7-7-7-7--|
---8--8--8--8--8--8--8--8-5-5-5-5-5-5-5-5----------------------------------|

----------------------------------------------------------------------------|
----------------------------------------------------------------------------|
-----------------------------------------10-9-9-9-9-9-9-9-9-9-9-9-9-9-9-9-9-|
-10-10-10-10-10-10-10-10-7-7-7-7-7-7-7-7-10-9-9-9-9-9-9-9-9-9-9-9-9-9-9-9-9-|
-10-10-10-10-10-10-10-10-7-7-7-7-7-7-7-7--8-7-7-7-7-7-7-7-7-7-7-7-7-7-7-7-7-|
--8--8--8--8--8--8--8--8-5-5-5-5-5-5-5-5------------------------------------|

---------------------------------------------------------------------------|
---------------------------------------------------------------------------|
------------------------------------------9-9-9-9-9-9-9-9-9-9-9-9-9-9-9-9--|
--10-10-10-10-10-10-10-10-7-7-7-7-7-7-7-7-9-9-9-9-9-9-9-9-9-9-9-9-9-9-9-9--|
--10-10-10-10-10-10-10-10-7-7-7-7-7-7-7-7-7-7-7-7-7-7-7-7-7-7-7-7-7-7-7-7--|
---8--8--8--8--8--8--8--8-5-5-5-5-5-5-5-5----------------------------------|
[ Tab from: http://www.guitartabs.cc/tabs/r/rise_against/1000_good_intentions_tab_ver_2.html ]
-------------------------------------------|
-------------------------------------------|
-------------------------------------------|
-10-10-10-10-10-10-10-10-7-7-7-7-7-7-7-7---|
-10-10-10-10-10-10-10-10-7-7-7-7-7-7-7-7---|
--8--8--8--8--8--8--8--8-5-5-5-5-5-5-5-5---|

--------------------------------------------------------------------------|
--------------------------------------------------------------------------|
--------------------------------------------------------------------------|
-----99----99----9--------------99----99----9--------------99----99----9--|
-----77----77----7-7-7-7-5-5----77----77----7-7-5-9-9-9----77----77----7--|
--00----00----00-------------00----00----00-------------00----00----00----|

--------------------------------|
--------------------------------|
--------------------------------|
--------------------------------|x2
-7-7-7-7-5-5-9-9-9-9-9-9-9-9----|
--------------------------------|

chorus
---------------------------------------------------------------------------|
---------------------------------------------------------------------------|
------------------------------------------9-9-9-9-9-9-9-9-9-9-9-9-9-9-9-9--|
--10-10-10-10-10-10-10-10-7-7-7-7-7-7-7-7-9-9-9-9-9-9-9-9-9-9-9-9-9-9-9-9--|
--10-10-10-10-10-10-10-10-7-7-7-7-7-7-7-7-7-7-7-7-7-7-7-7-7-7-7-7-7-7-7-7--|
---8--8--8--8--8--8--8--8-5-5-5-5-5-5-5-5----------------------------------|

----------------------------------------------------------------------------|
----------------------------------------------------------------------------|
-----------------------------------------10-9-9-9-9-9-9-9-9-9-9-9-9-9-9-9-9-|
-10-10-10-10-10-10-10-10-7-7-7-7-7-7-7-7-10-9-9-9-9-9-9-9-9-9-9-9-9-9-9-9-9-|
-10-10-10-10-10-10-10-10-7-7-7-7-7-7-7-7--8-7-7-7-7-7-7-7-7-7-7-7-7-7-7-7-7-|
--8--8--8--8--8--8--8--8-5-5-5-5-5-5-5-5------------------------------------|

---------------------------------------------------------------------------|
---------------------------------------------------------------------------|
------------------------------------------9-9-9-9-9-9-9-9-9-9-9-9-9-9-9-9--|
--10-10-10-10-10-10-10-10-7-7-7-7-7-7-7-7-9-9-9-9-9-9-9-9-9-9-9-9-9-9-9-9--|
--10-10-10-10-10-10-10-10-7-7-7-7-7-7-7-7-7-7-7-7-7-7-7-7-7-7-7-7-7-7-7-7--|
---8--8--8--8--8--8--8--8-5-5-5-5-5-5-5-5----------------------------------|

-------------------------------------------|
-------------------------------------------|
-------------------------------------------|
-10-10-10-10-10-10-10-10-7-7-7-7-7-7-7-7---|
-10-10-10-10-10-10-10-10-7-7-7-7-7-7-7-7---|
--8--8--8--8--8--8--8--8-5-5-5-5-5-5-5-5---|

thats pretty much the whole song
peace
Comments