Rise Against - 1000 Good Intentions Chords & Tabs

 

1000 Good Intentions Chords & Tabs

Rise Against Chords & Tabs

Version: 2 Type: Bass Tab 0 ratings
1 star 2 stars 3 stars 4 stars 5 stars
comments

1000 Good Intentions Bass Tab

seeing as how there was only one other bass tab of this song, and it wasn't quite right, 
decided to write one of my own.

verse
g|--------------------------------|
d|--------------------------------|
a|-----2-2-0-0-2-2-3-3-2-2-0-0----|
e|-0-0-------------------------3-3|

g|--------------------------------|
d|---------------------0-0--------|
a|-----2-2-0-0-2-2-3-3-----3-3-2-2|
e|-0-0----------------------------|

g|----------------------------------------------------------------|
d|----------------------------------------------------------------|
a|-----2-2-0-0-2-2-3-3-2-2-0-0---------------------2-2-0-0--------|
e|-0-0-------------------------3-3-2-2-0-0-2-2-3-3---------3-3-2-2|

chorus
g|----------------------------------------------------------------|
d|---------------------------------2-2-2-2-2-2-2-2-2-2-2-2-2-2-2-2|
a|-3-3-3-3-3-3-3-3-0-0-0-0-0-0-0-0--------------------------------|
e|----------------------------------------------------------------|

g|------------------------------------------------9-9-7-7-5-5-4-4-|
d|--------------------0--2--2-2-2-2-2-2-2-2-2-2-2-----------------|
a|-3-3-3-3-3-3-3-3-0----------------------------------------------|
e|----------------------------------------------------------------|
[ Tab from: http://www.guitartabs.cc/tabs/r/rise_against/1000_good_intentions_btab_ver_2.html ]
g|-----------------------------------------------------------------|
d|---------------------------------2-2-2-2-2-2-2-2-----------------|
a|-3-3-3-3-3-3-3-3-0-0-0-0-0-0-0-0---------------------------------|
e|-------------------------------------------------0-0-0-0-0-0-0-0-|

g|-----------------------|
d|-----------------------|
a|-3--3-3-3-3-0--0-0-0-0-|
e|-----------------------|

bridge pt.1
g|-----------------------------------------------------------------|
d|-----------------------------------------------------------------| play
a|-----------------3-3-3-3-0-0-0-0-----------------3-3-3-3-5-5-5-5-| twice
e|-0-0-0-0-0-0-0-0-----------------0-0-0-0-0-0-0-0-----------------|

bridge pt.2
g|-------------------------------------------------|
d|---------2-2-2-2-------------------------2-2-2-2-|
a|-----------------3-3-3-3-0-0-0-0-----------------|
e|-0-0-0-0-------------------------0-0-0-0---------|

     1st ending       2nd ending
g|-----------------|---------------------PAUSE-------------|
d|-----------------|-----------------2---PAUSE-------------|
a|-3-3-3-3-5-5-5-5-|-3-3-3-3-5-5-5-5-----PAUSE--7(x33)--7\-|
e|-----------------|---------------------PAUSE-------------|

end on open e

order:

verse
chorus
verse
chorus
bridge pt.1
bridge pt.2 with 1st ending 3x
bridge pt.2 with 2nd ending
chorus

and there ya go, have fun with it cuz its an amazing song
Comments