Ript - Poor Me Chords & Tabs

 

Poor Me Chords & Tabs

Ript Chords & Tabs

Version: 1 Type: Tab 0 ratings
1 star 2 stars 3 stars 4 stars 5 stars
comments

Poor Me Tab

   
tuning, low to high, down 1 1/2 steps drop d
b,g flat,b,e,a flat,d flat
h=hammer on
n=natural harmonics
p=pull off
m=mute
all riffs played in measures of 4

         n  n            n   n
-------------------------------------------------------------------
---------5---------------5--4-------------------------------------
------------4------------------------------------------------------
1h3-1-0------1h3-1-0------------------------------------------
1h3-1-0------1h3-1-0------------------------------------------
1h3-1-0------1h3-1-0------------------------------------------



guitar 1

---------------------------------------------------------------------
---------------------------------------------------------------------
7h9-9-9-xx-7h9-9-7h9-7-7h10-10-10-xx-7h10-10-7h10-7
7h9-9-9-xx-7h9-9-7h9-7-7h9--9---9-xx-7h9--9--7h9--7
7---7-7-xx-7---7-----7-7----7---7-xx-7----7--7----7
---------------------------------------------------------------------

---------------------------------------------------------------------
---------------------------------------------------------------------
9----9--9--xx-9-----9-9------9--5h7-7-7-xx-5h7-5-8-7p5
7h10-10-10-xx-7h10-10-7h10-7-5--5---5-5-xx-5----5--------
7----7--7--xx-7-----7-7----7-5--5---5-5-xx-5----5-------
--------------------------------------------------------------------

guitar 2
---------------------------------------------------------------------
---------------------------------------------------------------------
9-9-9-9-9-9-7-7--------------------------------------------------
7-7-7-7-7-7-5-5--------------------------------------------------
0-0-8-8-9-9-5-5--------------------------------------------------
---------------------------------------------------------------------



time guitar 1 and 2 to start and end at the same time

guitar 1 holds last note for a couple seconds then
both guitars dive into


---------------------------------------------------------------------------------
---------------------------------------------------------------------------------
---------------------------------------------------------------------------------
0-7-3-0-5-2-0-3-2-0-5-3-0-2-0-0-8-12-0-10-8-0-8-7-0-5-7-5-h7p5-3
0-7-3-0-5-2-0-3-2-0-5-3-0-2-0-0-8-12-0-10-8-0-8-7-0-5-7-5-h7p5-3
0-7-3-0-5-2-0-3-2-0-5-3-0-2-0-0-8-12-0-10-8-0-8-7-0-5-7-5-h7p5-3



guitar 1
---------------------------------------------------------------------------------
---------------------------------------------------------------------------------
---------------------------------------------------------------------------------
---------------------------------------------------------------------------------
---------------------------------------------------------------------------------
19-15-0-17-15-0-19-15-0-17-15-0-14h15-14---------------------------

[ Tab from: http://www.guitartabs.cc/tabs/r/ript/poor_me_tab.html ]
---------------------------------------------------------------------------------
---------------------------------------------------------------------------------
---------------------------------------------------------------------------------
19-15-0-17-15-0-19-15-0-17-15-0-14h15-14---------------------------
19-15-0-17-15-0-19-15-0-17-15-0-14h15-14---------------------------
19-15-0-17-15-0-19-15-0-17-15-0-14h15-14---------------------------

guitar 2                m m
---------------------------------------------------------------------------------
---------------------------------------------------------------------------------
---------------------------------------------------------------------------------
7-3-0-5-3-0-7-3-0-5-3-0-0-0-----------------------------------------------
7-3-0-5-3-0-7-3-0-5-3-0-0-0-----------------------------------------------
7-3-0-5-3-0-7-3-0-5-3-0-0-0-----------------------------------------------


guitar 1 
---------------------------------------------------------------------------------
---------------------------------------------------------------------------------
---------------------------------------------------------------------------------
17-19-17-19-17h19p17-15-17-15-17-15h17p15-----------------------
---------------------------------------------------------------------------------
---------------------------------------------------------------------------------

---------------------------------------------------------------------------------
---------------------------------------------------------------------------------
------------------------------------------------------------------------
12-15-12-15-12h15p12-8-12-10-8-12-----------------------------
--------------------------------------------------------------------
---------------------------------------------------------------------------------

last note slides into

both guitars
---------------------------------------------------------------------------------
---------------------------------------------------------------------------------
---------------------------------------------------------------------------------
0-7-3-0-5-2-0-3-2-0-5-3-0-2-0-0-8-12-0-10-8-0-8-7-0-5-7-5-h7p5-3
0-7-3-0-5-2-0-3-2-0-5-3-0-2-0-0-8-12-0-10-8-0-8-7-0-5-7-5-h7p5-3
0-7-3-0-5-2-0-3-2-0-5-3-0-2-0-0-8-12-0-10-8-0-8-7-0-5-7-5-h7p5-3


on the fourth measure, the last chord play the 3 then 2 then into this riff

---------------------------------------------------------------------------------
---------------------------------------------------------------------------------
---------------------------------------------------------------------------------
12-0-7-0-5-0-3-0-3-2-0------------------------------------------------------
12-0-7-0-5-0-3-0-3-2-0------------------------------------------------------
12-0-7-0-5-0-3-0-3-2-0-----------------------------------------------------




---------------------------------------------------------------------------------
---------------------------------------------------------------------------------
---------------------------------------------------------------------------------
0-7-3-0-5-3-0-7-3-0-5-3-0-0-----------------------------------------------
0-7-3-0-5-3-0-7-3-0-5-3-0-0-----------------------------------------------
0-7-3-0-5-3-0-7-3-0-5-3-0-0-----------------------------------------------





Comments