Rimsky Korsakov Nicola - Flight Of The Bumblebee Chords & Tabs

 

Flight Of The Bumblebee Chords & Tabs

Rimsky Korsakov Nicola Chords & Tabs

Version: 1 Type: Chords 1 rating
1 star 2 stars 3 stars 4 stars 5 stars
comments

Flight Of The Bumblebee Chords

Another tab from fretboard wizard.

This song is made-up of mostly quarter notes played at 100bmp,
start slowly perhaps half that.  It is truly a great song to learn as
it requires all the skills of good lead play from big position shifts
to speed and dexterity.  

Keep at this one; it takes most intermediate players a couple months
at best to master.  Best of luck!!!!

Count 1 and 2 and 3 and 4 and......

e||--12-11-10-9-10-9-8-7-|--8-7-6-5---------|--0---------------|
B||----------------------|----------9-8-7-6-|----4-3-2-3-2-1-0-|
G||----------------------|------------------|------------------|
D||----------------------|------------------|------------------|
A||----------------------|------------------|------------------|
E||----------------------|------------------|------------------|


                                                                            
------------------|------------------|------------------|------------------|
--1-0-------------|------------------|------------------|------------------|
------3-2-1-0-----|------------------|------------------|------------------|
--------------4-3-|--2-1-0---0-------|--2-1-0---0-------|--2-1-0---0-------|
------------------|--------4---4-3-2-|--------4---4-3-2-|--------4---4-3-2-|
------------------|------------------|------------------|------------------|


                                                                            
------------------|------------------|------------------|------------------|
------------------|------------------|------------------|------------------|
------------------|------------------|------------------|------------------|
--2-1-0---0-------|--2-1-0-----3-2-1-|--2-1-0-------0-1-|--2-1-0-----3-2-1-|
--------4---4-3-2-|--------4-3-------|--------4-3-4-----|--------4-3-------|
------------------|------------------|------------------|------------------|


                                                                            
------------------|------------------|------------------|------------------|
------------------|------------------|------------------|------------------|
------------------|------------------|------------------|------------------|
--2-1-0-------0-1-|--2-1-0---0-------|------0-1-2-3-2-1-|--2-1-0---0-------|
--------4-3-4-----|--------4---4-3-2-|--3-4-------------|--------4---4-3-2-|
------------------|------------------|------------------|------------------|


                                                                            
------------------|------------------|------------------|------------------|
------------------|------------------|------------------|------------------|
--------------0-1-|--2-1-0-----3-2-1-|--2-1-0-------0-1-|--2-1-0-----3-2-1-|
------0-1-2-4-----|--------4-3-------|--------4-3-4-----|--------4-3-------|
--3-4-------------|------------------|------------------|------------------|
------------------|------------------|------------------|------------------|


                                                                            
------------------|------------------|------------------|------------------|
------------------|------------------|------------------|------------------|
--2-1-0-------0-1-|--2-1-0---0-------|------0-1-2-3-2-1-|--2-1-0---0-------|
--------4-3-4-----|--------4---4-3-2-|--3-4-------------|--------4---4-3-2-|
------------------|------------------|------------------|------------------|
------------------|------------------|------------------|------------------|


                                                                            
------------------|------------------|------------------|------------------|
------------------|------------------|------------------|------------------|
------0-1-2-3-2-1-|--2-------2-------|--3---------------|--2-------2-------|
--3-4-------------|------------------|------------------|------------------|
------------------|----0-0-0---0-0-0-|------------------|----0-0-0---0-0-0-|
------------------|------------------|----4-4-4-4-4-4-4-|------------------|


                                                                     
-----------|------------------|------------------|------------------|
-----------|------------------|------------------|------0-1-2-1-0---|
--3--------|--2-3-2-1-2-3-2-1-|--2-3-2-1-2-3-2-1-|--2-3-----------3-|
-----------|------------------|------------------|------------------|
-----------|------------------|------------------|------------------|
-----------|------------------|------------------|------------------|


                                                                           
------------------|------------------|-----------------|------------------|
------0-1-2-1-0---|------------------|--4--------------|------------------|
--2-3-----------3-|--2-------7-------|--6--------------|--7-------7-------|
------------------|----0-0-0---0-0-0-|-----------------|----0-0-0---0-0-0-|
------------------|------------------|-----4-4-4-4-4-4-|------------------|
------------------|------------------|-----------------|------------------|


                                                                     
-----------|------------------|------------------|------0-1-2-1-0---|
--4--------|--3-4-3-2-3-4-3-2-|--3-4-3-2-3-4-3-2-|--3-4-----------4-|
--6--------|------------------|------------------|------------------|
-----------|------------------|------------------|------------------|
-----------|------------------|------------------|------------------|
-----------|------------------|------------------|------------------|


                                                                            
------0-1-2-1-0---|------------------|------------------|------------------|
--3-4-----------4-|--3-2-1-0---4-3-2-|--3-2-1-0---0-1-2-|--3-2-1-0---4-3-2-|
------------------|----------3-------|----------3-------|----------3-------|
------------------|------------------|------------------|------------------|
------------------|------------------|------------------|------------------|
------------------|------------------|------------------|------------------|


                                                            
------------------|--10-9-8-7-8-7-6-5-|--6-7-8-9-8-9-10-11-|
--3-2-1-0---0-1-2-|-------------------|--------------------|
----------3-------|-------------------|--------------------|
------------------|-------------------|--------------------|
------------------|-------------------|--------------------|
------------------|-------------------|--------------------|


                                                                                
--12-11-10-9-10-9-8-7-|--8-7-6-5---------|------------------|------------------|
----------------------|----------9-8-7-6-|--5-6-5-4-5-6-5-4-|--5-6-5-4-5-6-5-4-|
----------------------|------------------|------------------|------------------|
----------------------|------------------|------------------|------------------|
----------------------|------------------|------------------|------------------|
----------------------|------------------|------------------|------------------|


                                                                            
------------------|------------------|------------------|------------------|
------------------|------------------|------------------|------------------|
------------------|------------------|------------------|------------------|
--2-3-2-1-2-3-2-1-|--2-3-2-1-2-3-2-1-|--2-1-0---0-------|------------------|
------------------|------------------|--------4---4-3-2-|--3-2-1-0---------|
------------------|------------------|------------------|----------4-3-2-1-|

[ Tab from: http://www.guitartabs.cc/tabs/r/rimsky_korsakov_nicola/flight_of_the_bumblebee_crd.html ]
                                                                            
------------------|------------------|------------------|------------------|
------------------|------------------|------------------|------------------|
------------------|------------------|------------------|------------------|
------------------|------------------|------------------|------------------|
------------------|------------------|------------------|------------------|
--0-0-0-0-0-0-0-0-|--0-0-0-0-0-0-0-0-|--0-0-0-0-0-0-0-0-|--0-0-0-0-0-0-0-0-|


                                                                            
------------------|------------------|------------------|------------------|
------------------|------------------|------------2-3-4-|--5-6-5-4-5-6-5-4-|
------------------|----------------0-|--1-2-3-4-5-------|------------------|
------------------|------0-1-2-3-4---|------------------|------------------|
------------0-1-2-|--3-4-------------|------------------|------------------|
--0-1-2-3-4-------|------------------|------------------|------------------|


                                                                            
------------------|------------------|------------------|------------------|
--5-4-3-----6-5-4-|--5-4-3-------3-4-|--5-4-3-----6-5-4-|--5-4-3-------3-4-|
--------6-5-------|--------6-5-6-----|--------6-5-------|--------6-5-6-----|
------------------|------------------|------------------|------------------|
------------------|------------------|------------------|------------------|
------------------|------------------|------------------|------------------|


                                                                            
------------------|------------------|------------------|----------0-------|
--5-4-3---3-------|------3-4-5-6-5-4-|--5-4-3---3-------|------3-4---7-8-9-|
--------6---6-5-4-|--5-6-------------|--------6---6-5-4-|--5-6-------------|
------------------|------------------|------------------|------------------|
------------------|------------------|------------------|------------------|
------------------|------------------|------------------|------------------|


                                                                       
-----------------------|----------------------|-----------------------|
--10-9-8-------11-10-9-|--10-9-8----------8-9-|--10-9-8-------11-10-9-|
---------11-10---------|---------11-10-11-----|---------11-10---------|
-----------------------|----------------------|-----------------------|
-----------------------|----------------------|-----------------------|
-----------------------|----------------------|-----------------------|


                                                                      
----------------------|----------------------|-----------------------|
--10-9-8----------8-9-|--10-9-8----8---------|--------8-9-10-11-10-0-|
---------11-10-11-----|---------11---11-10-9-|--10-11----------------|
----------------------|----------------------|-----------------------|
----------------------|----------------------|-----------------------|
----------------------|----------------------|-----------------------|


                                                                              
------------------------|-----------10-12-13-12-11-|--12-11-10-9----13-12-11-|
--10-9-8----------------|--10-12-13----------------|-------------13----------|
---------11-10-11-12-13-|--------------------------|-------------------------|
------------------------|--------------------------|-------------------------|
------------------------|--------------------------|-------------------------|
------------------------|--------------------------|-------------------------|


                                                                            
--12-11-10-9----9-10-11-|--12-11-10-9----13-12-11-|--12-11-10-9----9-10-11-|
-------------13---------|-------------13----------|-------------13---------|
------------------------|-------------------------|------------------------|
------------------------|-------------------------|------------------------|
------------------------|-------------------------|------------------------|
------------------------|-------------------------|------------------------|


                                                                               
--12--------------------|--------------------------|-----------------------11-|
---------------12-13-14-|--15-14-13-12-13-12-------|-----------12-13-14-15----|
------12-13-15----------|--------------------15-14-|--13-14-15----------------|
------------------------|--------------------------|--------------------------|
------------------------|--------------------------|--------------------------|
------------------------|--------------------------|--------------------------|


                                                                               
--12-13-12-11-12-13-12-11-|--12--------------------|--------------------------|
--------------------------|---------------12-13-14-|--15-14-13-12-13-12-------|
--------------------------|------12-13-15----------|--------------------15-14-|
--------------------------|------------------------|--------------------------|
--------------------------|------------------------|--------------------------|
--------------------------|------------------------|--------------------------|


                                                      
-----------------------11-|--12-13-12-11-12-14-15-16-|
-----------12-13-14-15----|--------------------------|
--13-14-15----------------|--------------------------|
--------------------------|--------------------------|
--------------------------|--------------------------|
--------------------------|--------------------------|


                                                      
--17-16-15-14-15-14-13-12-|--13-12-11-10-------------|
--------------------------|--------------14-13-12-11-|
--------------------------|--------------------------|
--------------------------|--------------------------|
--------------------------|--------------------------|
--------------------------|--------------------------|


                                                      
--------------------------|--------------------------|
--------------------------|--------------------------|
--14-13-12-11-12-11-------|--------------------------|
--------------------15-14-|--15-14-13-12-------------|
--------------------------|--------------16-15-14-13-|
--------------------------|--------------------------|


                                                                 
--------------------------|------------------|------------------|
--------------------------|------------------|--5h6h5h4h6h4h6h4-|
--------------------------|------------------|------------------|
--------------------------|----7-6-7-5-7-4-7-|------------------|
--12h13h12h11-13h11h13h11-|--0---------------|------------------|
--------------------------|------------------|------------------|


                                                                  
----0---0---0---0-|-------------------|--------------------------|
------3---1---0---|-------------------|--------------------------|
------------------|--2----------------|--------------------------|
--2---------------|--2----------------|-----------------11-12-13-|
------------------|--0----------------|--11-12-13-14-15----------|
------------------|-------12-13-14-15-|--------------------------|


                                                                   
--------------------------|--------------12-14-15-16-|--17--------|
-----------------------12-|--13-14-15-16-------------|------------|
--------11-12-13-14-15----|--------------------------|------------|
--14-15-------------------|--------------------------|------------|
--------------------------|--------------------------|------------|
--------------------------|--------------------------|------------|


                                                    
--------5-------|-----------|----------|----------||
------5---------|-----------|----------|----------||
----5-----------|-----------|----------|----------||
--7-------------|-----------|----------|----------||
----------------|--0--------|----------|----------||
----------------|-----------|----------|----------||
Comments