Rilo Kiley - The Execution Of All Things Chords & Tabs

 

The Execution Of All Things Chords & Tabs

Rilo Kiley Chords & Tabs

Version: 2 Type: Bass Tab

The Execution Of All Things Bass Tab

   
Intro Part 1
G---------------------------------|
D---------------------------------|
A---------------------------------|
E-0--2---5---0--------------------|

Intro Part 2
G---------------------------------|
D---------------------------------|
A---------------------------------|
E-00--22---5-(let ring)-----------|

Verse 1
G---------------------------------|
D---------------------------------|
A---------------------------------|
E-00000000222222225555555500000000

Verse 2
G---------------------------------|
D---------------------------------|
A-------------------------44-22---|
E-000000002222222255555555--------|
[ Tab from: http://www.guitartabs.cc/tabs/r/rilo_kiley/the_execution_of_all_things_btab_ver_2.html ]
Verse 3
G--------------------------------------------------------|
D--------------------------------------------------------|
A-------------------------44-22-0(let ring)--2(let ring)-|
E-000000002222222255555555-------------------------------|

Bridge
G---------------------------------------------------------------------|
D---------------------------------------------------------------------|
A-2-0-2----------------2-0-2---2-0-2----------------2-0-2-0-----------|(let ring)
E--------5-0-5--3-3-3-----------------5-0-5--3-3-3--------------------|

Outro
G----------------------------------------------------|
D----------------------------------------------------|
A-44-22-4444-3333-0000-44-2-0-4444-3322-0000-33-22---|
E--------------------------------------------------0-|

song structure

Intro Part 1  x3
Intro Part 2  x1
Verse 1  x3
Verse 2  x1
Verse 1  x4
Verse 3  x1
Bridge  x1
Verse 1 x7
Verse 3  x1
Outro  x1