Rilo Kiley - Science Vs Romance Chords & Tabs

 

Science Vs Romance Chords & Tabs

Rilo Kiley Chords & Tabs

Version: 1 Type: Tab 0 ratings
1 star 2 stars 3 stars 4 stars 5 stars
comments

Science Vs Romance Tab

   
Rilo Kiley
Science vs. Romance(cover)
tabbed by: delaqua
Standard Tuning
This is guitar 1 version.I'll tab the guitar 2 version later.

Intro
D/\/\, B7/\/\, Em/\/\, A7(with 1st str.,3rd frt)/\/\  x3

E---5---------------------------------------------------|
B--------7----------------------------------------------|
G-----------7----6----7/9-------------------------------|
D------------------------------9---7/9\7---7/9\7---5----|
A-------------------------------------------------------|
E-------------------------------------------------------| x2

E---10----9-----7------7------7-----7-----7-----7----------|
B---7------7-----7-----10-----8-----7-----7-----7----------|
G---7------7-----7-----7------7-----7-----9-----7----------|
D---7------7-----7-----7------7-----7-----7-----7----------|
A----------------------------------------------------------|
E----------------------------------------------------------|


E---10-----9-----7-----7------7-----7-----7----7----7---7----------|
B---7------7-----7-----10-----8-----7-----7----7----7---7----------|
G---7------7-----7-----7------7-----7-----9----7----9--------------|
D---7------7-----7-----7------7-----7-----7----7----7--------------|
A------------------------------------------------------------------|
E------------------------------------------------------------------|


E------------------------------------------------------------------|
B------------------------------------------------------------------|
G---7/9\7----7/9\7/9\7----7/9/11---7/9\7---7/9---11---9---7---6----|
D------------------------------------------------------------------|
A------------------------------------------------------------------|
E------------------------------------------------------------------|


E---------------------------------------------------------------|
B---------------------------------------------------------------|
G---7---7/9\7----7/9\7/9\7----7/9/11----7/9\7---6---7---9---7---|
D---------------------------------------------------------------|
A---------------------------------------------------------------|
E---------------------------------------------------------------|

back to intro(play only twice)
then after jenny sings:"i would be a lot nicer"...make a quick transition to play this small part:
E|  7
B|7
play intro again and play only two times and make a quick transition to play this after 
sings:"used to beleive in alot more"...
E
B  10   10   10   10   10   10 12 10
G11   11   11   11    11  11         11 9 7

two times more back to intro(yeah i know theres a lot of that)

then a chorus break:
E|2 3 4 2
B|3 3 3 1
G|2 3 4 2
 then make a quick transition to :

G/\/\/\/\  F#/\/\/\/\
crash sites keep me up at nite
Bm/\/\/\/\  Em/\/\/\/\
impact, division, it splits in two
F#/\/\/\/\  G/\/\/\/\/\/\/\/   Gm\
directly underneath you
x4


E----------------------------------------------------------------------------|
B----------------------------------------------------------------------------|
G----------------------------------------------------7------7-------7/9------|
D------------7--------------7h9-----------7h9------9------9----7/9-----------|
A---7h9-----------7h9-----------7h9------------------------------------------|
E----------------------------------------------------------------------------|

E-------------------------------------------|
B-------------------------------------------|
G---7-----9p7----6h7-----7------------7-----|
D---7-----7-------7---------7---9---7--9----|
A-------------------------------------------|
E-------------------------------------------|

E--------------------------------------|
B--------------------------------------|
G---14---12---11---12---11---9---11----|
D--------------------------------------|
A--------------------------------------|
E--------------------------------------|

E---------------------------------------------------------------------------------------|
B---------------------------------------------------------------------------------------|
G---------11--------11--------12p11--------12p11-------12p11-------12p11----------------|
D---12--------12--------12-------------12-------------12------------12------------12----|
A---------------------------------------------------------------------------------------|
E---------------------------------------------------------------------------------------|

E-----------------------------------------------------|
B-----------------------------------------------------|
G---14p11--------12p11--------11------11------11------|
D--------------12-------------12-----------------12---|
A-----------------------------------------------------|
E-----------------------------------------------------|

E--------------------------------------------|
B--------------------------------------------|
G-------7---7h9----7----7---7-----7----------|
D---9---------------------------------9------|
A--------------------------------------------|
E--------------------------------------------|

E----------------------------------------------------------------------------|
B----------------------------------------------------------------------------|
G--11---11---11h12---14---12---12p11---12---11-----11--12--11----------------|
D----------------------------------------------------------------------------|
A----------------------------------------------------------------------------|
E----------------------------------------------------------------------------|


E-------------------------------------------------------------------------|
B---3---5---7---12---7-----12---10---8---7---8---5---7---3----------------|
G-------------------------------------------------------------------------|
D-------------------------------------------------------------------------|
A-------------------------------------------------------------------------|
E-------------------------------------------------------------------------|
[ Tab from: http://www.guitartabs.cc/tabs/r/rilo_kiley/science_vs_romance_tab.html ]
E----------------------------------------------------------------------------|
B---3---5---7---12---7----7~----5---5/7\5---5---5---7---5---3----------------|
G----------------------------------------------------------------------------|
D----------------------------------------------------------------------------|
A----------------------------------------------------------------------------|
E----------------------------------------------------------------------------|

E----------------------------------------------------------------------------|
B---3---5---7---12---7----7~-----12---10---8---7---8---5---7---3-------------|
G----------------------------------------------------------------------------|
D----------------------------------------------------------------------------|
A----------------------------------------------------------------------------|
E----------------------------------------------------------------------------|

E----------------------------------------------------------------------------|
B---3---5---7---12---7----7~-----5---5/7\5---5---5---7---5---3---------------|
G----------------------------------------------------------------------------|
D----------------------------------------------------------------------------|
A----------------------------------------------------------------------------|
E----------------------------------------------------------------------------|

(x4)
(with overdrive)
E-------------------------------------------------------------------------|
B---3---5---7---12---7-----12---10---8---7---8---5---7---3----------------|
G-------------------------------------------------------------------------|
D-------------------------------------------------------------------------|
A-------------------------------------------------------------------------|
E-------------------------------------------------------------------------|

E------------------------------------------------------------------------|
B---3---5---7---12---7------5---5/7\5---5---5---7---5---3----------------|
G------------------------------------------------------------------------|
D------------------------------------------------------------------------|
A------------------------------------------------------------------------|
E------------------------------------------------------------------------|

E--------------------------------------------------------------------------|
B---3---5---7---12---7------12---10---8---7---8---5---7---3----------------|
G--------------------------------------------------------------------------|
D--------------------------------------------------------------------------|
A--------------------------------------------------------------------------|
E--------------------------------------------------------------------------|

E----------------------------------------------------------------------------|
B--------------7-------7---8---7----10---8---7---8---10---12---14------------|
G---7----9-------9-----------------------------------------------------------|
D----------------------------------------------------------------------------|
A----------------------------------------------------------------------------|
E----------------------------------------------------------------------------|

E------------------------------------------|
B---14---14/15---17---17---17--------------|
G------------------------------------------|
D------------------------------------------|
A------------------------------------------|
E------------------------------------------|

E---14---14---14---14---15---15---15---15---------------|
B-------------------------------------------------------|
G-------------------------------------------------------|
D-------------------------------------------------------|
A-------------------------------------------------------|
E-------------------------------------------------------|

E---14---14---14---14---15---15---15---15----------------|
B--------------------------------------------------------|
G--------------------------------------------------------|
D--------------------------------------------------------|
A--------------------------------------------------------|
E--------------------------------------------------------|

E---14---14---14---14---15---15---15---15----------------|
B--------------------------------------------------------|
G--------------------------------------------------------|
D--------------------------------------------------------|
A--------------------------------------------------------|
E--------------------------------------------------------|

E---17---17---17---17---15---15---15---15----------------|
B--------------------------------------------------------|
G--------------------------------------------------------|
D--------------------------------------------------------|
A--------------------------------------------------------|
E--------------------------------------------------------|

E---14---14---15---15---14---14---15---15----------------|
B--------------------------------------------------------|
G--------------------------------------------------------|
D--------------------------------------------------------|
A--------------------------------------------------------|
E--------------------------------------------------------|

E---17---17---15---15---14---14---15---15----------------|
B--------------------------------------------------------|
G--------------------------------------------------------|
D--------------------------------------------------------|
A--------------------------------------------------------|
E--------------------------------------------------------|


then fast plugging
E|
B|17p15p14
G|            x8



im not sure what chords are played here on the guitar 1 part. i have some down but im 
sure if i should tab them. other than that im sure they end on a single "C".

as for anything else thats it. like i noted earlier i'll tab the guitar 2 part cuz it 
little harmonies that are important but are left out.

any questions email at mpjljt@yahoo.com
Thanks. :}
Comments