Rilo Kiley - Pictures Of Success Chords & Tabs

 

Pictures Of Success Chords & Tabs

Rilo Kiley Chords & Tabs

Version: 1 Type: Tab 0 ratings
1 star 2 stars 3 stars 4 stars 5 stars
comments

Pictures Of Success Tab

   
Rilo Kiley
Pictures of Success 

Another corrected/completed version of another tab. It was missing a lot of the ending
of the song. Questions and comments: jonlynch02@yahoo.com thanks.

Guitar 1
Main Riff played through entire song, unless otherwise noted.
e|---------------------------------| 
B|---------------------------------| 
G|---------------------------------| 
D|---0---0---0---0---0---0---0---0-|
A|---------------------------------| 
E|-2---2---3---3-/-7---7---5---5---| 

Guitar 2
Intro(Also played through various parts in the song)
e|---------------------------------| 
B|-7-------7-------7---------7-----|
G|-----7-------7-------7---------7-| Natural Harmonics
D|---7---7---7---7---7---7-7---7---| Repeat twice
A|---------------------------------| 
E|---------------------------------| 

Guitar 2
Intro Solo
e|---------------------------------|
B|-7-------7-------7-------5-7-5---|
G|-----7-------7-------7---------7-|
D|---7---7---7---7---7---7---------|
A|---------------------------------|
E|---------------------------------|

e|------------------------5-------|
B|-7-------7-------7--7-8---8-7-5-|
G|-----7-------7------------------|
D|---7---7---7---7----------------|
A|--------------------------------|
E|--------------------------------|

e|-------------------------------------------------------|
B|-7-------7---------------------------------------------|
G|-----7-------7-----------------------------------------|
D|---7---7---7---7--/9-7-7-7-/9-7------------------------|
A|--------------------------------10-9-5--5-7-5/9-10-9-7-|
E|-------------------------------------------------------|

e|-----------------------------------------------------| 
B|-10p8p7--10p8p7-----(7)-----10p8p7-------------------| 
G|----------------(7)-----(7)----------7/9\7-----------| x4
D|-------------------------------------------7/9\7/9\7-|
A|-----------------------------------------------------|
E|-----------------------------------------------------| 

Bridge before Verse
Guitar 1
e|-------------------------| 
B|-------------------------| 
G|-------------------------| 
D|-------5-4-0-0~~~--------| 
A|-------------------------| 
E|-3-3-3-------------------| 

Guitar 2
e|--------------------------| 
B|--------------------------| 
G|----------------7/9/7/9/7-| 
D|--------------------------| 
A|--------------------------| 
E|--------------------------|

2nd Time Only
Guitar 1
e|--------------------------| 
B|--------------------------|
G|--------------------------| 
D|-------5-4-0-0~~~---------| 
A|--------------------------| 
E|-3-3-3--------------------|

Guitar 2
e|--------------------------| 
B|----------------7/8/7/8/7-|
G|--------------------------| 
D|--------------------------| 
A|--------------------------| 
E|--------------------------|

Chorus
Guitar 2
e|-----/22-| <--- use a slide(?)
B|---------|
G|-7-------|
D|---7-----| play 7's as harmonics
A|---------|
E|---------| 

Before, "They say California"
Guitar 1
e|---------------------------------| 
B|---------------------------------| 
G|---------------------------------|
D|---------------------------------|
A|---------------------------------|
E|-3-3-3-3-3-3-3-3-3-3-3-3-3-3-3-3-|
[ Tab from: http://www.guitartabs.cc/tabs/r/rilo_kiley/pictures_of_success_tab.html ]
"They say California"
Guitar 1
e|---------------------------------------------------------------------| 
B|---------------------------------------------------------------------| 
G|---------------------------------------------------------------------|
D|---------------------------------------------------------------------|
A|---------------------------------------------------------------------|
E|-0-0-0-0-0-0-0-0-5-5-5-5-5-5-5-5-10-10-10-10-5-5-5-5-3-3-3-3-3-3-3-3-|

"And I say I've got my best shoes on..."
Guitar 1
e|---------------------------------| 
B|---------------------------------| 
G|---------------------------------|
D|---------------------------------|
A|---------------------------------|
E|-3-3-3-3-3-3-3-3-5-5-5-5-5-5-5-5-|

"Ready to go"
Guitar 1
e|-----------------------------------------------------------------| 
B|-----------------------------------------------------------------| 
G|-----------------------------------------------------------------|
D|-7-7-7-7-7-7-7-7-------------------------------------------------|
A|-5-5-5-5-5-5-5-5-7-7-7-7-7-7-7-7-5-5-5-5-5-5-5-5-9-9-9-9-9-9-9-9-|
E|-----------------5-5-5-5-5-5-5-5-3-3-3-3-3-3-3-3-7-7-7-7-7-7-7-7-|

Background Vocals Enter
Guitar 2
E|-14-14-14-14-14-14-14-14-14-14-14-14-14-14-14-14-| 
B|-------------------------------------------------| 
G|-------------------------------------------------|
D|-------------------------------------------------|
A|-------------------------------------------------|
E|-------------------------------------------------|

E|-15-15-15-15-15-15-15-15-12-12-12-12-12-12-12-12-| 
B|-------------------------------------------------|
G|-------------------------------------------------|
D|-------------------------------------------------|
A|-------------------------------------------------|
E|-------------------------------------------------|

Guitar 1
e|-----------------------------------------------------------------| 
B|-----------------------------------------------------------------| 
G|-----------------------------------------------------------------|
D|-7-7-7-7-7-7-7-7-------------------------------------------------|
A|-5-5-5-5-5-5-5-5-7-7-7-7-7-7-7-7-5-5-5-5-5-5-5-5-9-9-9-9-9-9-9-9-|
E|-----------------5-5-5-5-5-5-5-5-3-3-3-3-3-3-3-3-7-7-7-7-7-7-7-7-|

Solo Riff
E|-14-14-14-12-14-12-14-15-|
B|-------------------------| 
G|-------------------------| x3
D|-------------------------|
A|-------------------------|
E|-------------------------|

E|-17-17-17-19-19-19-21-21-21-22-22-22-|
B|-------------------------------------|
G|-------------------------------------|
D|-------------------------------------|
A|-------------------------------------|
E|-------------------------------------|

Guitar 2
e|-----------------------------| 
B|-7-------7-------7-----7-----|
G|-----7-------7-------7---7---| Natural Harmonics
D|---7---7---7---7---7-------7-| Then played normally
A|-----------------------------| 
E|-----------------------------|

Outro
"These are times that can't be weathered"
Both Guitars
e|----------------------------------------------------------------------------| 
B|-10-10-8-8-7-7-----10-10-8-8---------10-10-8-8-7-7--------------7-7---------|
G|---------------7-7-----------7-9-7-7---------------7-9-7-7--9-9-----9-9-6-6-|
D|----------------------------------------------------------------------------|
A|----------------------------------------------------------------------------|
E|----------------------------------------------------------------------------|

End
Guitar 1
e|--------|
B|---7~~~-|
G|--7~~~--|
D|-0~~~---| 
A|--------|
E|--------|
Comments