Rihanna - Cold Case Love Chords & Tabs

 

Cold Case Love Chords & Tabs

Rihanna Chords & Tabs

Version: 1 Type: Tab 0 ratings
1 star 2 stars 3 stars 4 stars 5 stars
comments

Cold Case Love Tab

Ezsmusic , comment and rate.
Actually the song is not complicated , the difficulty reside in the timing
There is the part who is really fast , i couldnt figure out correctly or maybe I didn't have to courage.
You can send me a message at facebook.com/ezsmusic if you find mistakes or if you want a tab

(/) Slide Up  (\) Slide Down  (h) Hammer On  (p) Pull Off  (b) Bend (r) Release (v) Vibrato

Stave 1:

E|--18b20vv---20r18h16---15--------------------------------------------------------------|
B|----------------------------------18--16--------16--18vvvvv--16------------------------|
G|----------------------------------------------17-----------------------17vvvv----------|
D|---------------------------------------------------------------------------------------|
A|---------------------------------------------------------------------------------------|
E|---------------------------------------------------------------------------------------|

E|--16h18-16h18b20vv-----20r18h16--15-------------------------------------------------------|
B|------------------------------------------------18-16-------16-18-------------------------|
G|----------------------------------------------------------17--------17vvv---17\15---------|
D|-----------------------------------------------------------------------------------15-15--|v
A|------------------------------------------------------------------------------------------|
E|------------------------------------------------------------------------------------------|

E|---------------------------------18---------------------------------------------------|
B|--18-18-18--20---18-20-21------21-20-18------------------- ---------------------------|
G|---------------------------------------------------20-----17-20-----------------------|
D|--------------------------------------------------------------------------------------|
A|--------------------------------------------------------------------------------------|
E|--------------------------------------------------------------------------------------|
[ Tab from: http://www.guitartabs.cc/tabs/r/rihanna/cold_case_love_tab.html ]
E|---------------------------------18-18b20vr18-16----15---------------------------------|
B|--18-18-18--20---18-20-21-----------------------------18--16h18vv----------------------|
G|-----------------------------------------------------------------17--------------------|
D|---------------------------------------------------------------------------------------|
A|---------------------------------------------------------------------------------------|
E|---------------------------------------------------------------------------------------|

E|----------------------------------18h20-18h20-----------------------------|
B|--18-18-18-19-19-19-21-21------------------18h21h18h21--------------------|
G|---------------------------------------------------------17h20h17h20-–----| improvise very fast
D|--------------------------------------------------------------------------|
A|--------------------------------------------------------------------------|
E|--------------------------------------------------------------------------|

E|-----------------------------------------------------------------------------------|
B|-----------------------------------------------------------------------------------|
G|-------------------13--------------------------------------------------------------|
D|------13-13h15-15----15vv----------------------------------------------------------|
A|--15-------------------------------------------------------------------------------|
E|-----------------------------------------------------------------------------------|
(fast )
E|-------------------------------------------------------------16-----------------------|
B|--18vvh16----- 18vvh16--------16-1818-----16-1818-----16-1818---16 --- 16-1818--------|
G|----------17-----------17---17----------17----------17--------------17----------------|
D|--------------------------------------------------------------------------------------|
A|--------------------------------------------------------------------------------------|
E|--------------------------------------------------------------------------------------|

E|---------------------------18-18-18b20r18vvvvh16v--15v-------------|
B|--18--18-18-20--20-20-20--------------------------------18v--------|
G|------------------------------------------------------------18v----|
D|-------------------------------------------------------------------|
A|-------------------------------------------------------------------|
E|-------------------------------------------------------------------|
Comments