Rigmas - Bros Night Out Chords & Tabs

 

Bros Night Out Chords & Tabs

Rigmas Chords & Tabs

Version: 2 Type: Tab 0 ratings
1 star 2 stars 3 stars 4 stars 5 stars
comments

Bros Night Out Tab

   
For Guitar Tab Universe

********************************
Artist: The Rigmas
Album: In Your System
Song: Bros Night Out
********************************

    This band isn't really well known but if you have heard these
guys before you know how good they are. I'll try and put this song on
Napster so you can play along with it but the people who have this
cd, Have fun. Just learn the second guitar part and try and figure out
when you should come in on the song.


Jeff Davis - NoName333@flash.net


Intro:

e --------------------------------------------------------------------------------------------|
B --------------------------------------------------------------------------------------------|
G --7-7-7-7------------------------------------------------------------------7-7-7-7-7-7-7-7--|
D --7-7-7-7--5-5-5-5--10-10--9-9--7-7-7-7--3-3-3-3--5-5-5-5--7-7-7-7-7-7-7-7------------------|
A --5-5-5-5--5-5-5-5--10-10--9-9--7-7-7-7--3-3-3-3--5-5-5-5--5-5-5-5-5-5-5-5------------------|
E ---------------3-3-3-3--8--8---7-7--5-5-5-5--1-1-1-1--3-3-3-3-------------------------------|

Solo A: 1x

e ---------------------------------------------------------------------------------------|
B ---------------------------------------------------------------------------------------|
G --7--5--4--5--4--2--0--5--4--2--2--2--2--5--4--0--4--5--4--0--7--7--7--7--7--7--7--7---|
D ---------------------------------------------------------------------------------------|
A ---------------------------------------------------------------------------------------|
E ---------------------------------------------------------------------------------------|

Solo B: 1x

e ------------------------------------------------------------------------------------------|
B ------------------------------------------------------------------------------------------|
G --7--5--4--5--4--2--0--5--4--2--2--2--2--7--5--7--5--7--5--7--5--7--10--7--7--7--7--------|
D ------------------------------------------------------------------------------------------|
A ------------------------------------------------------------------------------------------|
E ------------------------------------------------------------------------------------------|

Riff A: 2x
[ Tab from: http://www.guitartabs.cc/tabs/r/rigmas/bros_night_out_tab_ver_2.html ]
e --------------------------------------------------------------------------|
B --------------------------------------------------------------------------|
G --------------------------------------------------------------------------|
D --5-5-5-5--9-9-9-9--10-10-10-5--5-5-5-5--9-9-9-9--10-10-10-5--------------|
A --5-5-5-5--9-9-9-9--10-10-10-5--5-5-5-5--9-9-9-9--10-10-10-5--------------|
E --3-3-3-3--7-7-7-7--8--8--8----3--3-3-3-3--7-7-7-7----8--8--8---3---------|

Riff B: 2x

e ----------------------------------------------------------------------------------|
B ----------------------------------------------------------------------------------|
G ----------------------------------------------------------------------------------|
D --12-12-12-12-12-12--5-5-5-5--9-10-10--12-12-12-12-12-12--5-5-5-5-5-5-5-5---------|
A --12-12-12-12-12-12--5-5-5-5--9-10-10--12-12-12-12-12-12--5-5-5-5-5-5-5-5---------|
E --10-10-10-10-10-10--3-3-3-3--7--8--8---10-10-10-10-10-10--3-3-3-3-3-3-3-3--------|

Solo C: 1x

e ----------------------------------------------------------------------------------------------------|
B ----------------------------------------------------------------------------------------------------|
G --0--4--7--0--4--5--4--2--5--4--2--5--4--2--2--2--2--5--4--0--4--5--4--0--7--7--7--7--7--7--7--7----|
D ----------------------------------------------------------------------------------------------------|
A ----------------------------------------------------------------------------------------------------|
E ----------------------------------------------------------------------------------------------------|

Riff C: 2x

e --------------------------------------------------------|
B --------------------------------------------------------|
G --------------------------------------------------------|
D --12-12--5-5--9-9--10-10-10-10-10-10-10-10--------------|
A --12-12--5-5--9-9--10-10-10-10-10-10-10-10--------------|
E --10-10--3-3--7-7---8---8---8---8---8---8---8---8-------|

Solo D: 2x

e -------------------------------------------|
B -------------------------------------------|
G --0--4--7--0--4----------------------------|
D -------------------------------------------|
A -------------------------------------------|
E -------------------------------------------|

Riff D: 1x

e -------------------------------------------|
B -------------------------------------------|
G -------------------------------------------|
D --12--12--12--12-12-12---------------------|
A --12--12--12--12-12-12---------------------|
E --10--10--10--10-10-10---------------------|

Order:
        Intro: 6x w/ Solo A and B
        Riff: A
        Riff: B
        Intro: 3x w/ Solo C
        Riff: A
        Riff: C
        Intro: 3x
        Riff: A
        Riff: B w/ Solo D
        Riff: D
Comments