Riddlin Kids - See The Light Chords & Tabs

 

See The Light Chords & Tabs

Riddlin Kids Chords & Tabs

Version: 1 Type: Bass Tab 0 ratings
1 star 2 stars 3 stars 4 stars 5 stars
comments

See The Light Bass Tab

   
-------------------------------------------------------------------------------
			     See the light - Riddlin Kids
-------------------------------------------------------------------------------

By:Zero is Great man
Standard(Right)Tunning: EADG

Bass: Intro
G|------------------------------------|------------------------------------|
D|------------------------------------|------------------------------------|
A|-5-5-5-5----------------------------|-5-5-5-5-----------7-7-7-7----------|
E|----------5-5-5-5--0-0-0-0--3-3-3-3-|----------5-5-5-5-----------3-3-3-3-|
[ Tab from: http://www.guitartabs.cc/tabs/r/riddlin_kids/see_the_light_btab.html ]
Bass: Verse
G|---------------------------------------------|------------------|
D|---------------------------------------------|------------------|
A|-5-5-5-5-----------7-7-7-7-------------------|-5----------------|
E|----------5-5-5-5-----------5-5-5-5--7-7-7-7-|----5--3--x-x-x-x-|
                                                
Bass:chorus                            Post Chorus fill(w/ choppy rythem)
e|------------------------------------|---------------------------------|
B|------------------------------------|---------------------------------|
G|------------------------------------|---------------------------------|
D|------------------------------------|---------------------------------|
A|-------------------5-5-5-5----------|---------------------------------|
E|-7-7-7-7--3-3-3-3-----------5-5-5-5-|-3-3-3-3-3-3-3-3-3-3-3-3-3-3-3-3-|

Bass:Bridge(choppy rhythem)
G|-----------------------------------|
D|-----------------------------------|
A|-5-5-5-5-5-5-5-5-5-5-5-5-5-5-5-5-5-|
E|-----------------------------------|

Bass: Outro
G|------------------------------------------|
D|-------------------0-0-0-0-0-0-0-0-0-0----|
A|----------------------------------------5-|
E|-3-3-3-3-3-3-3-3-3------------------------|


Ok, That's all, everything in the song ok, Don't be scared to comment
or correct, though I doubt that it needs any. Enjoy!
===============================================================================
Comments