Riddlin Kids - Pick Up The Pieces Chords & Tabs

 

Pick Up The Pieces Chords & Tabs

Riddlin Kids Chords & Tabs

Version: 1 Type: Bass Tab 0 ratings
1 star 2 stars 3 stars 4 stars 5 stars
comments

Pick Up The Pieces Bass Tab

Riddlin Kids 
Pick up the Pieces
Tabbed by Mavrick45         Mavrick_45@sugarray.com


Part one
G----------------------------------------------------
D----------------------------------------------------              X2
A------------------------0-0-0---2-2-2-2-2-2---------
E---0-0-0-----4-4-4----------------------------------

[ Tab from: http://www.guitartabs.cc/tabs/r/riddlin_kids/pick_up_the_pieces_btab.html ]
Part two
G-------------------------------------------------------------------
D-------------------------------------------------------------------         X6
A-------------------------------------------------------------------
E---0-0-0-0-0-0-0---4-4-4-4-4-4-4---2-2-2-2-2-2-2/5-5-5-5-5-5-5-----

Part one   X4
Part two   X4
Part one   X4

Part three
G----------------------------------------------
D----------------------------------------------           X4
A---7---6---4---0-0-0-----------------0--------
E-------------------------2-2-2-2/4------------


Part four
G-----------------------------------------
D-----------------------------------------
A-----------------------------------------
E---0-0-0-0-0-0-0-0-0-0-0-0-0-0-0--------


Part two   X4
Part one   X4


Ending
G------
D------
A------
E---0--   hold last note
Comments