Riddlin Kids - I Feel Fine Chords & Tabs

 

I Feel Fine Chords & Tabs

Riddlin Kids Chords & Tabs

Version: 6 Type: Tab 0 ratings
1 star 2 stars 3 stars 4 stars 5 stars
comments

I Feel Fine Tab

   
RIDDLIN KIDS:I FEEL FINE
ALBULM:HURRY UP AND WAIT.
STANDARD TUNNING: EADGBe
TABBED BY: ZERO IS GREAT MAN

GUITAR 1 PLAYS LEAD
GUITAR 2 PLAYS RHYTHEM

P.M=PALM MUTE

GUITAR 1 INTRO(PART 1)
E|-9--9------------------|
A|-11-11--11----11----11-|
D|-11-11-----------11----|(x3)
G|-----------10----------|
B|-----------------------|
e|-----------------------|

GUITAR 2 INTRO(PART 1)
E|-----------------------|
A|-4-4-------------------|
D|-6-6-------------------|(x3)
G|-6-6-------------------|
B|-----------------------|
e|-----------------------|

GUITAR 1 INTRO(PART 1)
E|-2-2-----4-4-----|
A|-4-4-3-4-6-6-3-4-|
D|-4-4-----6-6-----|
G|-----------------|
B|-----------------|
e|-----------------|

GUITAR 2 INTRO(PART 2)
E|-2-2-----4-4-----|
A|-4-4-----6-6-----|
D|-4-4-----6-6-----|
G|-----------------|
B|-----------------|
e|-----------------|
[ Tab from: http://www.guitartabs.cc/tabs/r/riddlin_kids/i_feel_fine_tab_ver_6.html ]
GUITAR 2 VERSE
  |-----P.M-------|      |-------P.M-------|
E|---------4-4-4-4--------2-2-2-2--4-4-4-4-|
A|-4-4-4-4-6-6-6-6--------4-4-4-4--6-6-6-6-|
D|-6-6-6-6-6-6-6-6--------4-4-4-4--6-6-6-6-|
G|-6-6-6-6---------------------------------|
B|-----------------------------------------|
e|-----------------------------------------|

                A|-3-4-3-|GUITAR 1 VERSE FILL

BOTH GUITARS PRECHORUS(1, 2, 3, 4,...)
E|-2-2-2-2--4-|
A|-4-4-4-4--6-|
D|-4-4-4-4--6-|
G|------------|
B|------------|
e|------------|

GUITAR 2 CHORUS
E|-------2--4---|
A|-4--6--4--6---|
D|-6--8--4--6---|
G|-6--8---------|
B|--------------|
e|--------------|

GUITAR 1 CHROUS FILL
E|--------------|
A|--------------|
D|--------------|
G|-5-6-5-6-5-6--|
B|--------------|
e|--------------|

BOTH GUITARS BRIDGE
E|-----------4-4-4-4--2-2-2-2--4-4-4-4-|
A|--4-4-4-4--6-6-6-6--4-4-4-4--6-6-6-6-|
D|--6-6-6-6--6-6-6-6--4-4-4-4--6-6-6-6-|
G|--6-6-6-6----------------------------|
B|-------------------------------------|
e|-------------------------------------|

BOTH GUITARS OUTRO
E|-----|
A|-4-4-|
D|-6-6-|
G|-6-6-|
B|-----|
e|-----|
Comments