Riddlin Kids - I Feel Fine Chords & Tabs

 

I Feel Fine Chords & Tabs

Riddlin Kids Chords & Tabs

Version: 4 Type: Tab 0 ratings
1 star 2 stars 3 stars 4 stars 5 stars
comments

I Feel Fine Tab

My first tab, and I'm 99.9% sure this is right, any corrections would be great.  
Its in standard tuning, and is an easy and fun song to play.  Enjoy!

Intro
               3x                     
E------------------|--------------------|
B---------6--------|--------2---------4-|
G-6-6-------6---6--|--------------------|
D-6-6---6-----6----|-4-4--4----6-6--6---|
A-4-4--------------|-4-4-------6-6------|
E------------------|-2-2-------4-4------|  Then repeat this section

Verse
(Palm Muted)

E-----------------|-----------------|-----------------|---------------
B-----------------|-----------------|-----------------|---------------
G-6-6-6-6-6-6-6-6-|-6-6-6-6-6-6-6-6-|-----------------|---------------
D-6-6-6-6-6-6-6-6-|-6-6-6-6-6-6-6-6-|-4-4-4-4-4-4-4-4-|6-6-6-6-6-6-6-6
A-4-4-4-4-4-4-4-4-|-4-4-4-4-4-4-4-4-|-4-4-4-4-4-4-4-4-|6-6-6-6-6-6-6-6
E-----------------|-----------------|-2-2-2-2-2-2-2-2-|4-4-4-4-4-4-4-4

Pre Chorus

E---------------|----------------|
B---------------|----------------|
G---------------|----------------|
D-4---4---4---4-|-6--------------|
A-4---4---4---4-|-6--------------|
E-2---2---2---2-|-4--------------|

"One, Two, Three, Four..."
[ Tab from: http://www.guitartabs.cc/tabs/r/riddlin_kids/i_feel_fine_tab_ver_4.html ]
Chorus
 Play these first 2 measures  3x and then:
E-------------|--------------| |--------------|-----------------|
B-------------|--------------| |--------------|-----------------|
G-6---------8-|--------------| |-6----------8-|-----------------|
D-6---------8-|-4----------6-| |-6----------8-|-4-4-4-4-4-4-4-4-|
A-4---------6-|-4----------6-| |-4----------6-|-4-4-4-4-4-4-4-4-|
E-------------|-2----------4-| |--------------|-2-2-2-2-2-2-2-2-|

"I feel fine..."

Go back and repeat everything.  On your repeat after chorus:
                                     Repeat the last 2 measures 
E-----------------|-----------------|----------------|---------------|
B-----------------|-----------------|----------------|---------------|
G-----------------|-----------------|----------------|---------------|
D-6-6-6-6-6-6-6-6-|-6-6-6-6-6-6-6-6-|-4-4-4-4-4-4-4-4|6-6-6-6-6-6-6-6|
A-6-6-6-6-6-6-6-6-|-6-6-6-6-6-6-6-6-|-4-4-4-4-4-4-4-4|6-6-6-6-6-6-6-6|
E-4-4-4-4-4-4-4-4-|-4-4-4-4-4-4-4-4-|-2-2-2-2-2-2-2-2|4-4-4-4-4-4-4-4|

Then you go back, do the chorus and intro.  

Listen to the CD so you can get it down, all the repeats, and which sections 
follow what, and so forth.  I hope its not too confusing.  But trust your ear.
Comments