Riddlin Kids - I Feel Fine Chords & Tabs

 

I Feel Fine Chords & Tabs

Riddlin Kids Chords & Tabs

Version: 2 Type: Bass Tab 0 ratings
1 star 2 stars 3 stars 4 stars 5 stars
comments

I Feel Fine Bass Tab

Artist: Riddlin Kids
Tilte: I feel fine
Standard Tuning
Mich Manaras

Intro: 
G--------------------------------------------------- 
D---------------------------------------------------
A--4-4-4-4-4-4-4-4-4-4-4-4-4-4-4-4------------------ x2
E----------------------------------2-2-2-2-4-4-4-4--

Verse:
G-------------------------------------
D------------------------------------- 
A--4-4-4-4---------------------------- x2
E----------4-4-4-4--2-2-2-2--4-4-4-4--         

Pre-Chorus:
G-----------
D-----------
A-----------
E--2-2-2-2--
[ Tab from: http://www.guitartabs.cc/tabs/r/riddlin_kids/i_feel_fine_btab_ver_2.html ]
Chorus:(on the 4th time the last 2 notes are played longer)
G---------------------
D-----------4-4--6-6-- 
A--4-4--6-6----------- x4   
E---------------------

Bridge:(on the 2nd time the last note is played longer)
G--------------------------------------
D-------------------------------------- 
A-------------------------------------- x2
E--6-6-6-6--4-4-4-4--2-2-2-2--4-4-4-4--

End on:
G-------
D-------
A--4-4--
E-------

Thats all! Listen to the song for all the timings.
Don't be afraid to tell me if the tab sucks
but i'm sure its right.
Comments