Riddlin Kids - Here We Go Again Chords & Tabs

 

Here We Go Again Chords & Tabs

Riddlin Kids Chords & Tabs

Version: 1 Type: Bass Tab 0 ratings
1 star 2 stars 3 stars 4 stars 5 stars
comments

Here We Go Again Bass Tab

   
-------------------------------------------------------------------------------
			     Here we go again - Riddlin Kids
-------------------------------------------------------------------------------

Tabbed By : Zero is great man
Tuning:EADG

Main riff
G|---------------------------|
D|---------------------------|
A|-3-3-3-3-------------------|
E|----------5-5-5-5--3-3-3-3-|
[ Tab from: http://www.guitartabs.cc/tabs/r/riddlin_kids/here_we_go_again_btab.html ]
Pre-Chorus
G|-----------------------|
D|-----------------------|
A|-5-5-5-5--7-7-7-7------|
E|-------------------5-5-|

Bridge
G|------------------------------------|
D|------------------------------------|
A|-------------------5-5-5-5--3-3-3-3-|
E|-5-5-5-5--2-2-2-2-------------------|


| /  slide up
| \  slide down
| h  hammer-on
| p  pull-off
| ~  vibrato
| +  harmonic
| x  Mute note


Easy to play, And I'm pretty sure this is the whold dang thing,
please send in your rating and comments.
===============================================================================
Comments