Riddlin Kids - Anyday Now Chords & Tabs

 

Anyday Now Chords & Tabs

Riddlin Kids Chords & Tabs

Version: 1 Type: Tab

Anyday Now Tab

Andreas this is for you

INTRO/CHORUS

Guitar 1
e|---------------------|
B|---------------------|
G|---------------------|   x4
D|------22--6-77--7/9--|
A|------22--6-77--7/9--|
E|------00--4-55--5/7--|
             __________
INTRO/       | CHORUS |
Guitar 2     |\/\/\/\/|
e|------- |  ----------|
B|------- |  ----------|
G|--8/11- |  -88-899---|   x8
D|--x/x-- |  -xx-xxx---|
A|--6/9-- |  -66-677---|
E|------- |  ----------|

VERSE
(missin guitar 2)
Guitar 1
e|----------------------|
B|----------------------|
G|----------------------|
D|--2------4------7-----|
A|--2 x32--4 x16--7 x16-|
E|--0------2------5-----|
    .      .      .

BRIDGE
[ Tab from: http://www.guitartabs.cc/tabs/r/riddlin_kids/anyday_now_tab.html ]
Guitar 1
e|----------| -----------------------|
B|----------| -----------------------|
G|----------| -99xx-55xx-------------|
D|--2-2-2-2-| -99xx-55xx-99xx-77xx---|  x6
A|--2-2-2-2-| -77xx-33xx-99xx-77xx---|
E|--0-0-0-0-| -----------77xx-55xx---|

Guitar 2
(after guitar 1's second time through Bridge)
D|--2222-|
A|--2222-| x36
E|--0000-|
    ....

LAST CHORUS
Guitar 1
e|---------------------|
B|---------------------|
G|---------------------|   x7
D|------22--6-77--7/9--|
A|------22--6-77--7/9--|
E|------00--4-55--5/7--|

Guitar 2
e|------- |  ----------|
B|------- |  ----------|
G|--8/11- |  -88-899---|   x16
D|--x/x-- |  -xx-xxx---|
A|--6/9-- |  -66-677---|
E|------- |  ----------|


Order:
Intro/chorus
Verse
chorus
verse
chorus
bridge
last chorus