Ricky Nelson - Travelin Man Chords & Tabs

 

Travelin Man Chords & Tabs

Ricky Nelson Chords & Tabs

Version: 1 Type: Bass Tab 0 ratings
1 star 2 stars 3 stars 4 stars 5 stars
comments

Travelin Man Bass Tab

Travelin Man
This song, released by Ricky Nelson as a double A side with
Hello Mary Lou, reached Number 2 in UK and number 1 in USA.
Tab by bass50611. Nice and easy playing song.
Any comments bass254@btinternet.com


Intro:
         .        .        .        .
G|-----------------------------------------|
D|-----------------------------------------|
A|-0-2-4-5--5-5---2--2-2---5--5-5---2--2-2-|
E|-----------5--------2--------5--------2--|

Verse 1:
   .        .        .        .                    .
G|----------------------------------------------------------------------|
D|----------------------------------------------------------------------|
A|-5--5-5---2--2-2---5--5-5---2--2-2---5-55--------5--5--5---000000-2-4-|
E|-----5--------2--------5--------2----------3-33------55---------------|
[ Tab from: http://www.guitartabs.cc/tabs/r/ricky_nelson/travelin_man_btab.html ]
Verse 2:
   .        .        .        .                    .
G|--------------------------------------------------------------------|
D|-----------------------------------------------------------------44-|
A|-5--5-5---2--2-2---5--5-5---2--2-2---5-55--------5--5--5---555-77---|
E|-----5--------2--------5--------2----------3-33------55-------------|

Bridge:
G|--------------------------------------------------------------|
D|-5-55---4-44---5-55----------44---5-55---4-44------77-55-44---|
A|--------------------5---55-77-----------------7-77---------77-|
E|--------------------------------------------------------------|

Repeat Verse 1:

Solo: Repeat Verse 2:

Repeat Bridge:

Repeat Verse 1:

Outro:
   .        .        .        .        .        .        .        .
G|-----------------------------------------------------------------------|
D|-----------------------------------------------------------------------|
A|-5--5-5---2--2-2---5--5-5---2--2-2---5--5-5---2--2-2---5--5-5---2--2-2-|
E|-----5--------2--------5--------2--------5--------2--------5--------2--|

   .        .
G|-----------------------------|
D|-----------------------------|
A|-5--5-5---2--2-2---5-5-----5-|
E|-----5--------2--------5-5---|
Comments