Ricky Martin - Livin La Vida Loca Chords & Tabs

 

Livin La Vida Loca Chords & Tabs

Ricky Martin Chords & Tabs

Version: 1 Type: Tab 0 ratings
1 star 2 stars 3 stars 4 stars 5 stars
comments

Livin La Vida Loca Tab

Artist: Ricky Martin
Song: Livin' La Vida Loca (solos)
Album: ????

The first solo in the song
d:------------------------------------------------------------
a:------------------------------------------------------------
e:--12--0--0-0--3--5--0-5--5--3--5--0--0--0--3--0- 0

The main solo
[ Tab from: http://www.guitartabs.cc/tabs/r/ricky_martin/livin_la_vida_loca_tab.html ]
d:-----------------------------------------0-------------------
a:-----------------------------0-0-0-0-2---2-2-0------------
e:-0-0-0-3-5-0-5-5-3-5-3-----------------------3-0-3-----

d:---------------------------2---------------------------------
a:------------------------------------------------------------
e:-0-0-0-3-5-3-5-5-3-0----0-0------------------------


e:0-0-0-0-0-0----------0----0-3-0------------------------
b:3-3-3-3-3-3--0-3-5----5---------3-5-----------------
g:------------------------------------------------------------

tabbed by: ian


Ian Shaw
email:cableguy@cannoemail.com  
Comments