Rick Springfield - Jessies Girl Chords & Tabs

 

Jessies Girl Chords & Tabs

Rick Springfield Chords & Tabs

Version: 6 Type: Tab

Jessies Girl Tab

Jessie’s Girl
Rick Springfield





e|---------------------------------------------------------------|
B|---------------------------------------------------------------|
G|---------------------------------------------------------------|
D|--7---7----------------------------7--5------------------------|
A|--5---5--7--7--9--9----5--5--7--7--5--5------------------------|
E|---------5--5--7--7----3--3--5--5------------------------------|

e|---------------------------------------------------------------|
B|---------------------------------------------------------------|
G|---------------------------------------------------------------|
A|--5--5--7--7--9--9------5---5--7--7--5--5----------------------|
E|--------5--5--7--7------3---3--5--5----------------------------|

e|---------------------------------------------------------------|
B|---------------------------------------------------------------|
G|---------------------------------------------------------------|
D|--7----7------------------------------7--7---------------------|
A|--5----5--7--7—-9--9------5---5--7--7—5--5---------------------|
E|----------5--5--7--7------3---3--5--5--------------------------|

e|---------------------------------------------------------------|
B|---------------------------------------------------------------|
G|---------------------------------------------------------------|
D|--7----7------------------------------7--7---------------------|
A|--5----5--7--7—-9--9------5---5--7--7—5--5---------------------|
E|----------5--5--7--7------3---3--5--5--------------------------|

e|---------------------------------------------------------------|
B|---------------------------------------------------------------|
G|---------------------------------------------------------------|
D|--7----7------------------------------7--7---------------------|
A|--5----5--7--7—-9--9------5---5--7--7—5--5---------------------|
E|----------5--5--7--7------3---3--5--5--------------------------|

e|---------------------------------------------------------------|
B|---------------------------------------------------------------|
G|---------------------------------------------------------------|
D|--7----7------------------------------7--7---------------------|
A|--5----5--7--7—-9--9------5---5--7--7—5--5---------------------|
E|----------5--5--7--7------3---3--5--5--------------------------|

e|---------------------------------------------------------------|
B|---------------------------------------------------------------|
G|---------------------------------------------------------------|
D|--7----7------------------------------7--7---------------------|
A|--5----5--7--7—-9--9------5---5--7--7—5--5---------------------|
E|----------5--5--7--7------3---3--5--5--------------------------|

e|---------------------------------------------------------------|
B|---------------------------------------------------------------|
G|---------------------------------------------------------------|
D|--7----7------------------------------7--7---------------------|
A|--5----5--7--7—-9--9------5---5--7--7—5--5---------------------|
E|----------5--5--7--7------3---3--5--5--------------------------|

e|---------------------------------------------------------------|
B|---------------------------------------------------------------|
G|---------------------------------------------------------------|
D|--7----7------------------------------7—-7\--------------------|
A|--5----5--7--7—-9--9------5---5--7--7—5—-5\--------------------|
E|----------5--5--7--7------3---3--5--5--------------------------|


e|---------------------------------------------------------------|
B|---------------------------------------------------------------|
G|---------------------------------------------------------------|
D|--------------------------------7---7---7----------------------|
A|-7—-7--7--7--7--7--7--7--7--7---5---5---5----------------------|
E|-5--5--5--5--5--5--5--5--5--5----------------------------------|

e|---------------------------------------------------------------|
B|---------------------------------------------------------------|
G|---------------------------------------------------------------|
D|--2--4--4--2---4--4--2--2---7--7--7----------------------------|
A|--0--4--4--0---2--2--0--0---5--5--5----------------------------|
E|---------------------------------------------------------------|

e|---------------------------------------------------------------|
B|---------------------------------------------------------------|
G|---------------------------------------------------------------|
D|--2--4--4--2---4--4--2---------7-------------------------------|
A|--0--2--2--0---2--2--0--5--7---5-------------------------------|
E|------------------------3--5-----------------------------------|

e|---------------------------------------------------------------|
B|---------------------------------------------------------------|
G|---------------------------------------------------------------|
D|---------------------------------------------------------------|
A|--/7--9--9--9--7--7--------------------------------------------|
E|--/5--7--7--7--5--5--------------------------------------------|

e|---------------------------------------------------------------|
B|---------------------------------------------------------------|
G|---------------------------------------------------------------|
D|--7----7------------------------------7--7---------------------|
A|--5----5--7--7—-9--9------5---5--7--7—5--5---------------------|
E|----------5--5--7--7------3---3--5--5--------------------------|

e|---------------------------------------------------------------|
B|---------------------------------------------------------------|
G|---------------------------------------------------------------|
D|--7----7------------------------------7--7---------------------|
A|--5----5--7--7—-9--9------5---5--7--7—5--5---------------------|
E|----------5--5--7--7------3---3--5--5--------------------------|

e|---------------------------------------------------------------|
B|---------------------------------------------------------------|
G|---------------------------------------------------------------|
D|--7----7------------------------------7--7---------------------|
A|--5----5--7--7—-9--9------5---5--7--7—5--5---------------------|
E|----------5--5--7--7------3---3--5--5--------------------------|

e|---------------------------------------------------------------|
B|---------------------------------------------------------------|
G|---------------------------------------------------------------|
D|--7----7------------------------------7--7---------------------|
A|--5----5--7--7—-9--9------5---5--7--7—5--5---------------------|
E|----------5--5--7--7------3---3--5--5--------------------------|

e|---------------------------------------------------------------|
B|---------------------------------------------------------------|
G|---------------------------------------------------------------|
D|--7----7------------------------------7--7---------------------|
A|--5----5--7--7—-9--9------5---5--7--7—5--5---------------------|
E|----------5--5--7--7------3---3--5--5--------------------------|

e|---------------------------------------------------------------|
B|---------------------------------------------------------------|
G|---------------------------------------------------------------|
D|--7----7------------------------------7--7---------------------|
A|--5----5--7--7—-9--9------5---5--7--7—5--5---------------------|
E|----------5--5--7--7------3---3--5--5--------------------------|



e|---------------------------------------------------------------|
B|---------------------------------------------------------------|
G|---------------------------------------------------------------|
D|--7---7------------------------------7—-7\---------------------|
A|--5---5--7--7--9--9----5---5--7--7---5—-5\---------------------|
E|---------5--5--7--7----3---3--5--5-----------------------------|

e|---------------------------------------------------------------|
B|---------------------------------------------------------------|
G|---------------------------------------------------------------|
D|--2--4--4--2--4--4--2--2--7--7--7------------------------------|
A|--0--2--2--0--2--2--0--0--5--5--5------------------------------|
E|---------------------------------------------------------------|
[ Tab from: http://www.guitartabs.cc/tabs/r/rick_springfield/jessies_girl_tab_ver_6.html ]
e|---------------------------------------------------------------|
B|---------------------------------------------------------------|
G|---------------------------------------------------------------|
D|--2--4--4--2--4--4--2--------7---------------------------------|
A|--0--2--2--0--2--2--0--5--7--5---------------------------------|
E|-----------------------3--5------------------------------------|

e|---------------------------------------------------------------|
B|---------------------------------------------------------------|
G|---------------------------------------------------------------|
D|----------------------7--7--7----------------------------------|
A|--7/9--9--9--7--7--7--5--5--5----------------------------------|
E|--5/7--7--7--5--5--5-------------------------------------------|

e|---------------------------------------------------------------|
B|---------------------------------------------------------------|
G|---------------------------------------------------------------|
D|--2--4--4--2---4--4--2--2--7--7--7-----------------------------|
A|--0--2--2--0---2--2--0--0--5--5--5-----------------------------|
E|---------------------------------------------------------------|

e|---------------------------------------------------------------|
B|---------------------------------------------------------------|
G|---------------------------------------------------------------|
D|--2--4--4--2---4---4--2---------7\-----------------------------|
A|--0--2--2--0---2---2--2---5--7—-5\-----------------------------|
E|--------------------------3--5---------------------------------|

e|---------------------------------------------------------------|
B|---------------------------------------------------------------|
G|---------------------------------------------------------------|
D|--------------7—-7\--------7-----------------------------------|
A|--5--5--5--7—-5-—5\--5--7--5-----------------------------------|
E|--3--3--3--5---------3--5--------------------------------------|

e|---------------------------------------------------------------|
B|---------------------------------------------------------------|
G|---------------------------------------------------------------|
D|---------------------------------------------------------------|
A|-/7--9--9--9---7---5-}-x87-------------------------------------|
E|-/5--7--7--7---5---3-}-x87-------------------------------------|

e|----------------------------|-2--4--4--2--4--4--2--------------|
B|----------------------------|-2--4--4--2--4--4--2--------------|
G|----------------------------|-3--4--4--3--4--4--3--------------|
D|----------------4----4----4-|-4--6--6--4--6--6--4------4--4--4-|
A|--7----------4--2----2----2-|-4--6--6--4--6--6--4---4--2--2--2-|
E|--5----------2--------------|-2--4--4--2--4--4--2---2----------|

e|-2--4--4--2--4--4--2--------------|
B|-2--4--4--2--4--4--2--------------|
G|-3--4--4--3--4--4--3--------------|
D|-4--6--6--4--6--6--4------4--4--4-|
A|-4--6--6--4--6--6--4---4--2--2--2-|
E|-2--4--4--2--4--4--2---2----------|

e|-2--4--4--2--4--4--2--------------|
B|-2--4--4--2--4--4--2--------------|
G|-3--4--4--3--4--4--3--------------|
D|-4--6--6--4--6--6--4------4--4--4-|
A|-4--6--6--4--6--6--4---4--2--2--2-|
E|-2--4--4--2--4--4--2---2----------|
 


e|-2--4--4--2--4--4—-2-------------|-----------------------------|
B|-2--4--4--2--4--4—-2-------------|-----------------------------|
G|-3--4--4--3--4--4—-3-------------|-----------------------------|
D|-4--6--6--4--6—-6-—4---------7---|-----------------------------|
A|-4--6--6--4--6--6—-4---5--7--5---|--/7--9--9--9--7--7----------|
E|-2--4--4--2--4—-4—-2---3--5------|--/5--7--7--7--5--5----------|

e|---------------------------------------------------------------|
B|---------------------------------------------------------------|
G|---------------------------------------------------------------|
D|--7----7------------------------------7--7---------------------|
A|--5----5--7--7—-9--9------5---5--7--7—5--5---------------------|
E|----------5--5--7--7------3---3--5--5--------------------------|

e|---------------------------------------------------------------|
B|---------------------------------------------------------------|
G|---------------------------------------------------------------|
D|--7----7------------------------------7--7---------------------|
A|--5----5--7--7—-9--9------5---5--7--7—5--5---------------------|
E|----------5--5--7--7------3---3--5--5--------------------------|

e|---------------------------------------------------------------|
B|---------------------------------------------------------------|
G|---------------------------------------------------------------|
D|--7----7------------------------------7--7---------------------|
A|--5----5--7--7—-9--9------5---5--7--7—5--5---------------------|
E|----------5--5--7--7------3---3--5--5--------------------------|

e|---------------------------------------------------------------|
B|---------------------------------------------------------------|
G|---------------------------------------------------------------|
D|--7----7------------------------------7--7---------------------|
A|--5----5--7--7—-9--9------5---5--7--7—5--5---------------------|
E|----------5--5--7--7------3---3--5--5--------------------------|

e|---------------------------------------------------------------|
B|---------------------------------------------------------------|
G|---------------------------------------------------------------|
D|----------7--7--7----------------------------------------------|
A|-7-}x10---5--5--5----------------------------------------------|
E|-5-}x10--------------------------------------------------------|

e|---------------------------------------------------------------|
B|---------------------------------------------------------------|
G|---------------------------------------------------------------|
D|-2--4--4--2--4--4--2--2--7--7--7-------------------------------|
A|-0--2--2--0--2--2--0--0--5--5--5-------------------------------|
E|---------------------------------------------------------------|

e|---------------------------------------------------------------|
B|---------------------------------------------------------------|
G|---------------------------------------------------------------|
D|-2--4--4--2--4--4--2--2--7--7--7-------------------------------|
A|-0--2--2--0--2--2--0--0--5--5--5-------------------------------|
E|---------------------------------------------------------------|


e|---------------------------------------------------------------|
B|---------------------------------------------------------------|
G|---------------------------------------------------------------|
D|-2--4--4--2--4--4--2--------7----------------------------------|
A|-0--2--2--0--2--2--0--5--7--5----------------------------------|
E|----------------------3—-5-------------------------------------|

e|---------------------------------------------------------------|
B|---------------------------------------------------------------|
G|---------------------------------------------------------------|
D|----------------------7--7--7----------------------------------|
A|--7\9--9--9--7--7--7--5--5--5----------------------------------|
E|--7\9--7--7--5--5----------------------------------------------|

e|---------------------------------------------------------------|
B|---------------------------------------------------------------|
G|---------------------------------------------------------------|
D|-2--4--4--2--4--4--2--2--7--7--7-------------------------------|
A|-0--2--2--0--2--2--0--0--5--5--5-------------------------------|
E|---------------------------------------------------------------|

e|---------------------------------------------------------------|
B|---------------------------------------------------------------|
G|---------------------------------------------------------------|
D|-2--4--4--2--4--4--2--2--7--7--7-------------------------------|
A|-0--2--2--0--2--2--0--0--5--5--5-------------------------------|
E|---------------------------------------------------------------|

e|---------------------------------------------------------------|
B|---------------------------------------------------------------|
G|---------------------------------------------------------------|
D|-2--4--4--2--4--4--2--2-----7--7-------------------------------|
A|-0--2--2--0--2--2--0--0--7--5--5-------------------------------|
E|-------------------------5-------------------------------------|

e|------------------------------||
B|------------------------------||
G|------------------------------||
D|------7----------7------------||
A|---7--5--7--5----5------------||
E|---5-----5--3-----------------||






| /  slide up
| \  slide down