Rick Springfield - Jessies Girl Chords & Tabs

 

Jessies Girl Chords & Tabs

Rick Springfield Chords & Tabs

Version: 3 Type: Tab 0 ratings
1 star 2 stars 3 stars 4 stars 5 stars
comments

Jessies Girl Tab

This is my first Tab ,A great pop tune that gets requested on regualar basis at gigs .

Here is the solo , use delay and and some destoration . Comments to Emodrevils@msn.com
|---------------------------------------|------17 14----------------------|
|15 15 15 15 15 15- 15-14--14-15-- 15---|--b17------14 15 14 --15-14------|
|------------------------14------14-----|--------------------16------16 14|
|---------------------------------------|---------------------------------|
|---------------------------------------|---------------------------------|
|---------------------------------------|---------------------------------|
[ Tab from: http://www.guitartabs.cc/tabs/r/rick_springfield/jessies_girl_tab_ver_3.html ]
(Slide into
|14--14--------------15 14 12 -14 12 -  |--------- 9----------------------|
|15--15--17 15 17 15 ---------------15  |9--9--12|--10-9---9--12----------|
|---------------------------------------|10-10-11------10--10-11-14-15----|
|---------------------------------------|------------------------14-14----|
|---------------------------------------|---------------------------------|
|---------------------------------------|---------------------------------|


|---------------------------------------|---------------------------------|
|--(2)----------------------------------|---------------------------------|
|---------------------------------------|---------------------------------|
|---------------------------------------|---------------------------------|
|---------------------------------------|---------------------------------|
|---------------------------------------|---------------------------------|


|---------------------------------------|---------------------------------|
|---------------------------------------|---------------------------------|
|---------------------------------------|---------------------------------|
|---------------------------------------|---------------------------------|
|---------------------------------------|---------------------------------|
|---------------------------------------|---------------------------------|
Comments