Rick Price - Heaven Knows Acoustic Chords & Tabs

 

Heaven Knows Acoustic Chords & Tabs

Rick Price Chords & Tabs

Version: 1 Type: Tab 0 ratings
1 star 2 stars 3 stars 4 stars 5 stars
comments

Heaven Knows Acoustic Tab

   
trancribed by: ulo (etitskoymalaki@yahoo.com)
song title:    heaven knows (acoustic version)
artist:        rick price
tuning:        half-step down(Eb-Ab-Db-Gb-Bb-Eb)


intro:

|3---3-----------|----------------|3---3-----------|------3---------|
|3-----3---------|5---6-5---------|3-----3---------|--1-----3-1-----|
|5-5-------------|5-5-5---5-------|5-5-------5-----|0---------------|
|5---------------|5---5-----5-----|5---------------|----------------|
|----------------|----------------|----------------|----------------|
|----------------|----------------|-----------h1-3-|----------------|


verse:

|3---3-----------|----------5-----|----------------|----------------|
|3-----3---------|----6-5-----5---|------3---------|------3-------0-|
|5-5-------------|--5-5---5-------|----0-------0---|----0-----0-----|
|5---------------|3---------------|--0-------0-----|--2-----2-------|
|----------------|----------------|----------------|----------------|
|----------------|----------------|3-------1-------|0-----------4---|

|----------------|----------------|----------3-----|
|------------1---|6---6-----------|------1---------|
|----2-----------|5-----5---------|----0-----------|
|--2-------0-----|5-------5-------|----------------|
|0---------------|--3-------3-----|----------------|
|------0-3-------|----------------h1-3-----3-------|

|3---3-----------|----------5-----|----------------|----------------|
|3-----3---------|----6-5-----5---|------3---------|------3---------|
|5-5-------5-----|--5-5---5-------|----0-------0---|----0-----0-----|
|5---------------|3---------------|--0-------0-----|--2-----2-------|
|----------------|----------------|----------------|----------------|
|----------------|----------------|3-------1-------|0-----------4---|

|----------------|----------------|
|------------1---|6---6-----------|
|----2-----------|5-----5---------|
|--2-------0-----|5-------5-----0-|
|0---------------|--3-------------|
|------0-3-------|------------3---|


pre-chorus:

|----------0-----|0-----3---3-----|----------------|----------------|
|------1-----1---|1-----3-----3-1-|6---6-----------|----4-----------|
|----2---------2-|0-----0---------|5-----5---------|----5-----------|
|--2-------------|2-----0---------|5-------5-------|------------8---|
|0-------0-------|0-----0---------|--3-------3-----|--6-------8-----|
|----------------|3-----3---------|--------------1-|4-------6-------|


chorus:

|----------------|----------------|----------------|----------------|
|----------------|----------------|----------------|----------------|
|----0-----4-0---|----0---5---4---|----0-----4-0---|----0---5-4-2-0-|
|--2--/5-------0-|--3-----5---5---|--2--/5---------|--3-----5-5-0-0-|
|3---------------|3-----3-5---5---|3---------------|3-----3-5-5-----|
|--------3-------|----------------|--------3-------|----------------|

|----------------|----------------|----------------|----------------|
|----------------|----------------|----------------|----------------|
|----0-----4-0---|----0---5---4---|----0-----4-0---|----0---5-4-2-0-|
|--2--/5---------|--3-----5---5---|--2--/5---------|--3-----5-5-0-0-|
|3---------------|3-----3-5---5---|3---------------|3-----3-5-5-----|
|--------3-------|----------------|--------3-------|----------------|

|--------0-------|------1-0-1-----|--------3-------|
|------1---1-----|------------1---|------3---------|
|----2-------2---|----3-----------|----0-----------|
|--2-------------|--3-------------|--0-------------|
|0-------------0-|1---------------|----------------|
|----------------|--------------0-|3---------------|


post-chorus:

|3---3-----------|----------------|3---3-----------|------3---------|
|3-----3---------|5---6-5---------|3-----3---------|--1-----3-------|
|5-5-------------|5-5-5---5-------|5-5-----5-------|0---------0-----|
|5---------------|5---5-----5-----|5---------5-----|----------------|
|----------------|----------------|----------------|----------------|
|----------------|----------------|-----------h1-3-|----------------|


verse:

|3---3-----------|----------5-----|----------------|----------------|
|3-----3---------|----6-5-----5---|------3-------1-|------3---------|
|5-5-------------|--5-5---5-------|----0-------0---|----0-----0-----|
|5---------------|3---------------|--0-------0-----|--2-----2-------|
|----------------|----------------|----------------|----------------|
|----------------|----------------|3-------1-------|0-----------4---|

|----------------|----------------|
|----1-------1---|6---6-----------|
|----2---------0-|5-----5---------|
|--2-------0-----|5-------------0-|
|0---------------|--3-------------|
|------0-3-------|------------3---|


pre-chorus:

|--------0-------|0-----3---3-----|----------------|----------------|
|------1---1-----|1-----3-----3-1-|6---6-----------|----4-----------|
|----2-------2---|0-----0---------|5-----5---------|----5-------7---|
|--2-------------|2-----0---------|5-------5-------|--6---------8---|
|0-------------0-|0-----0---------|--3-------3-----|----------8-----|
|----------------|3-----3---------|----------------|4-----4-6-------|


chorus:
[ Tab from: http://www.guitartabs.cc/tabs/r/rick_price/heaven_knows_acoustic_tab.html ]
|----------------|----------------|----------------|----------------|
|----------------|----------------|----------------|----------------|
|----0-----4-0---|----0---5---4---|----0-----4-0---|----0---5-4-2-0-|
|--2--/5-------0-|--3-----5---5---|--2--/5---------|--3-----5-5-0-0-|
|3---------------|3-----3-5---5---|3---------------|3-----3-5-5-----|
|--------3-------|----------------|--------3-------|----------------|

|----------------|----------------|----------------|----------------|
|----------------|----------------|----------------|----------------|
|----0-----4-0---|----0---5---4---|----0-----4-0---|----0---5-4-2-0-|
|--2--/5---------|--3-----5---5---|--2--/5-------0-|--3-----5-5-0-0-|
|3---------------|3-----3-5---5---|3---------------|3-----3-5-5-----|
|--------3-------|----------------|--------3-------|----------------|

|----------0-----|------1-0-1-----|--------0-------|----5-----------|
|------1-----1---|------------1---|------3---3-----|5-----5---------|
|----2---2-------|----3-----------|----0-------0---|5---------------|
|--2-------------|--3-------------|--0-------------|--7-------------|
|0-------------0-|1---------------|----------------|----------------|
|----------------|--------------0-|3---------------|----------------|


bridge:

|--------8-------|5-----5---------|----------------|--------5-------|
|------8---8-----|5---5---5---5---|--------8-------|------6---6-----|
|----9-------9---|----------------|------7---7-----|----5-----------|
|-10-------------|--3-------3-----|----9-----------|--7-------------|
|----------------|----------------|--7-----------7-|5---------------|
|0---------------|----------------|0---------------|----------------|

|--------0-------|----------------|----------------|----------------|
|------0---0-----|5---5-----------|------4-4-------|--------6-------|
|----0-------0---|5-----5---------|----5-----5---5-|------7---------|
|--2-----------2-|----------------|--6---------6---|----8-----------|
|----------------|--3-------3-----|----------------|--8-------------|
|0---------------|----------------|4---------------|6---------------|


chorus:

|----------------|----------------|----------------|----------------|
|----------------|----------------|----------------|----------------|
|----0-----4-0---|----0---5---4---|----0-----4-0---|----0---5-4-2-0-|
|--2--/5---------|--3-----5---5---|--2--/5---------|--3-----5-5-0-0-|
|3---------------|3-----3-5---5---|3---------------|3-----3-5-5-----|
|--------3-------|----------------|--------3-------|----------------|

|----------------|----------------|----------------|----------------|
|----------------|----------------|----------------|----------------|
|----0-----4-0---|----0---5---4---|----0-----4-0---|----0---5-4-2-0-|
|--2--/5-------0-|--0-----5---5---|--2--/5---------|--3-----5-5-0-0-|
|3---------------|3-----3-5---5---|3---------------|3-----3-5-5-----|
|--------3-------|----------------|--------3-------|----------------|

|--------0-------|------1-0-1-----|--------3-------|
|------1---1-----|------------1---|------3---------|
|----2-------2---|----3-----------|----0-------0---|
|--2-------------|--3-------------|--0-------------|
|0-------------0-|1---------------|----------------|
|----------------|--------------0-|3---------------|


outro:

|3---3-----------|----------------|3---3-----------|--------3-------|
|3-----3---------|5---6-5---------|3-----3---------|------1---1-----|
|5-5-------------|5-5-5---5-------|5-5-----5-------|----0-------0---|
|5---------------|5---5-----5-----|5---------5-----|--0-------------|
|----------------|----------------|------------3---|----------------|
|----------------|----------------|----------------|3---------------|

|--------3-------|----8-----------|
|------5---------|----------------|
|----5-----------|----------------|
|--5-------------|--10------------|
|3---------------|10--------------|
|--------------8-|----------------|



verse:
she's always on my mind
from the time I wake up
til I close my eyes
she is everywhere I go
she's all i know

and though she's so far away
it just keeps gettin stronger everyday
and even though she's gone
i'm still holdin on

refrain:
so tell me where do i start
coz it's breakin my heart
dont wanna let her go

chorus:
maybe my love will come back someday
only heaven knows
and maybe our hearts will find their way
only heaven knows
all i can do is hope and pray
coz heaven knows

verse:
my friends keep telling me
if you really love her
you gotta set her free
and if she returns in kind
i iknow she's mine

refrain:
so tell me where do i start
coz it's breakin my heart
dont wanna let her go

chorus:
maybe my love will come back someday
only heaven knows
and maybe our hearts will find their way
only heaven knows
all i can do is hope and pray
coz heaven knows

bridge:
why i live in despair
coz wide awake or dreamin
i know she's never there
but all the time i act so brave
i'm shakin inside
why does it hurt me so

chorus:
maybe my love will come back someday
only heaven knows
and maybe our heart will find their way
only heaven knows
all i can do is hope and pray
coz heaven knows

heaven knows.. heaven knows
Comments