Richie Kotzen - Losin My Mind Chords & Tabs

 

Losin My Mind Chords & Tabs

Richie Kotzen Chords & Tabs

Version: 1 Type: Tab 0 ratings
1 star 2 stars 3 stars 4 stars 5 stars
comments

Losin My Mind Tab

Richie Kotzen - Losin my mind
Album: Get up
Tabbed by: Mike luard - mikeluard@hotmail.com

(first chord)
e--/--\---5---|
B--/--\---5---|
G--/--\---6---|
D--/--\---7---|
A--/--\---7---|
E--/--\---5---|

Intro/verse:
e--------------------------------------------------|
B-------8----------7---------5---------------------|
G-------b10--------b9--------b7--5-5-5-5-/-7-7-7-7-|
D--7-7--------7-7------7-7-------5-5-5-5-/-7-7-7-7-|
A--7-7--------7-7------7-7-------3-3-3-3-/-5-5-5-5-|
E--5-5--------5-5------5-5-------------------------|

Leading up to chorus: x3
e---------------------|
B---------------------|
G--5-5-5-12-----------|
D--5-5-5-12--5-5-5-5--|
A--3-3-3-10--5-5-5-5--|
E------------3-3-3-3--|
[ Tab from: http://www.guitartabs.cc/tabs/r/richie_kotzen/losin_my_mind_tab.html ]
Chorus:
e------------------------------|--------------------------|
B------------------------------|--------------------------|
G----------------------5-/-7-5-|--------------------5-----|
D--5--5--5-5-5--5-5-5--5-/-7-5-|-5-5--5-5-5--5-5-5--5---5-|
A----------------------3-/-5-3-|--------------------3---5-|
E--3--5--3-3-5--3-3-5--3-/-5-3-|-3-5--3-3-5--3-3-5--3---3-|

e----------------------------|
B----------------------------|
G------------------5-/-7--5--|
D-5-5-5-5-5-5-5-5--5-/-7--5--|
A------------------3-/-5--3--|
E-3-5-3-3-5-3-3-5--3-/-5--3--|

e------------------------------------------------|
B------------------------------------------------|
G-12-14-12---------------------------------------|
D----------14-12\10-12-10------------------------|
A-------------------------12-10----------0-8-12--|
E-------------------------------12-10-8----------|

Umm in solo try Am pentatonic scales and some flying arpeggios cause i couldnt work it out...
Comments