Richey Kim - Just My Luck Chords & Tabs

 

Just My Luck Chords & Tabs

Richey Kim Chords & Tabs

Version: 1 Type: Tab 0 ratings
1 star 2 stars 3 stars 4 stars 5 stars
comments

Just My Luck Tab

   
#----------------------------------PLEASE NOTE---------------------------------#
#This file is the author's own work and represents their interpretation of the #
#song. You may only use this file for private study, scholarship, or research. #
#------------------------------------------------------------------------------#
#

Date: Thu, 4 Dec 1997
From: linaria@hotmail.com
Subject: Kim Richey songs


JUST MY LUCK (Kim Richey & Angelo)
----------------------------------
[Actually in B; capo 4.  Each chord is half a measure.]
[The measures that say "D*" are actually either D-Dsus4-D-Dsus4 or
 D-Dsus4-Dsus4-Dsus4 (the latter more in the intro).  That D part leads
 into either G (320033) or C(9) (x32033).  If you've heard the song,
 you know which part that is.]
[It sounds like the acoustic guitar is probably a 12-string, but with
 the capo on 4, it sounds jangly enough on a 6-string.]

D*    G   D*  C(9)  D*     G   D*  C(9)  D*
[intro: acoustic guitar]
G   D*  C(9)  D*     G   D*  C(9)  D*
[intro: whole band]

G       D*        C(9)   D*    G      D*         C(9)   D*
  I got tired of losing,         so I covered my tracks
G        D*      C(9)    D*    Em         D/F#          G    D*
  I left love behind me,         it was a thing of the past
G          D*        C(9)    D*    G                D*        C(9)   D*
  And I got back on my feet again    with something new in my stride
G                 D*          C(9)       D*       Em          D/F#      G    G
  Well I was just telling my girlfriend yesterday   how I was doing all right

C       G           D        D    C          D       G        G
  I was living the good life,   none of that silly love stuff
C        D         G        Em            C    D    G   D*
  Then I went and fell for you, ain't that just my luck

G   D*  C(9)  D*     G   D*  C(9)  D*
[instrumental]

I got a house in the country, I got a garden that grows
And I got nobody telling me, "hey, turn down that radio"
I've made my life real simple, a couple cats and me
I don't get bored and lonely as long as there's something on TV

I was living the good life, none of that silly love stuff
Then I went and fell for you, ain't that just my luck

      Cmaj7 [pause 2 measures]     Em [pause 2 measures]
Is it just my luck            or a twist of fate
              A    A      A         A     C         C       D    D
I was ready to close the book, then you went and turned the page

G   D   C(9)  D      G   D   C(9)  D
[slide guitar solo]
G   D   C(9)  D      G   C(9)  G   G
[slide guitar solo]
[ Tab from: http://www.guitartabs.cc/tabs/r/richey_kim/just_my_luck_tab.html ]
Yeah I was living the good life, none of that silly love stuff
Then I went and fell for you, ain't that just my luck

I was living the good life, none of that silly love stuff
Then I went and fell for you, ain't that just my luck

           Em   D/F#  G   G        C    D    G    G.
Ain't that just my luck, ain't that just my luck



ORGAN RIFF for acoustic guitar (capo 4):

   G               D                C               D                G
E |--------------------------------|--------------------------------|----
B |--------------------------------|--------------------------------|----
G |------2=4-----0=2---------------|----0---0-------0---------------|----
D |------------------------------0=|2-----------2-------2-----------|----
A |--------------------------------|-----------------------02---0---|----
E |--------------------------------|--------------------------------|3---
   ^   .   ^   .   ^   .   ^   .    ^   .   ^   .   ^   .   ^   .    ^



SLIDE GUITAR SOLO for acoustic guitar (capo 4):

       G       D        C       D        G       D        C       D
E 3///|10------5=3-5-0-|----------------|10--57--5=3-5-0-|------57--5-----|
B ----|----------------|----------8-10-8|----------------|------------8///|
G ----|----------------|----------------|----------------|----------------|
  ^ .  ^ . ^ . ^ . ^ .  ^ . ^ . ^ . ^ .  ^ . ^ . ^ . ^ .  ^ . ^ . ^ . ^ .

       G       D        C       D        G       C        G       G
    E |10--57--5=3-5-0-|--35------------|--3-------------|----------------|
    B |----------------|------7\\\\\\\0-|----------------|----------------|
    G |----------------|----------------|----------------|----------------|
       ^ . ^ . ^ . ^ .  ^ . ^ . ^ . ^ .  ^ . ^ . ^ . ^ .  ^ . ^ . ^ . ^ .



SLIDE GUITAR SOLO (no capo):

         B               F#               E               F#
E 2-/-/-|14--------------9-\-7-/-9-------|----------------------------14--|
B ------|----------------------------9---|----------------12-/14--12-/----|
G ------|--------------------------------|--------------------------------|
  ^ .^ . ^   .   ^   .   ^   .   ^   .    ^   .   ^   .   ^   .   ^   .   

         B               F#               E               F#
      E |------9/11------9-\-7-/-9-------|-----------9/11-----9-\---------[14]
      B |----------------------------9---|------------------------7-/-/-/-|
      G |--------------------------------|--------------------------------|
         ^   .   ^   .   ^   .   ^   .    ^   .   ^   .   ^   .   ^   .   

         B               F#               E               F#
      E |14------------------------------|--------------------------------|
      B |-----14/16------14-\12-/14------|----12/14---11-\-\-\-\-\--------|
      G |----------------------------13--|------------------------9-\-\-\-[8]
         ^   .   ^   .   ^   .   ^   .    ^   .   ^   .   ^   .   ^   .   

         B               E                B               B
      E |--------------------------------|--------------------------------|
      B |--/-/-/-/-12--------------------|--------(7)-/-/-16---14-\-\-5---|
      G |8---------------------------8-/-|9-\-8---------------------------|
         ^   .   ^   .   ^   .   ^   .    ^   .   ^   .   ^   .   ^   .   


Comments