Richard Marx - Hazard Chords & Tabs

 

Hazard Chords & Tabs

Richard Marx Chords & Tabs

Version: 1 Type: Tab 0 ratings
1 star 2 stars 3 stars 4 stars 5 stars
comments

Hazard Tab

LEAD BREAK (HAZARD)
PLAYED ON A NYLON STRING GUITAR
STANDARD TUNING

e -------6--6--5-5-5---3---5/6------|------6--5--6/8--/10-10-10---8---6--5H6P5---------------------------------|
B-----------------------------------|------------------------------------------------------6-----8-------------|
G-----------------------------------|---------------------------------------------------------------------5----|
D-----------------------------------|--------------------------------------------------------------------------|
A-----------------------------------|--------------------------------------------------------------------------|
E-----------------------------------|--------------------------------------------------------------------------|

[ Tab from: http://www.guitartabs.cc/tabs/r/richard_marx/hazard_tab.html ]
e-----------------------------------|------------------------------------------------------5--6--8--10-6-8-----| 
B-----------6-6---5-----------------|----------------------------------3-------------3/6-----------------------|
G--------------------5--------------|------------3P2P0-----2-3-5------3--5--0----------------------------------|
D-----------------------------------|-----------------------3--------------------------------------------------|
A-----------------------------------|--------------------------------------------------------------------------|
E-----------------------------------|--------------------------------------------------------------------------|


e-----------5--6---8--10------13--13--11--10--10--8--6--5-5-----5----------------------------------------------|
B-------8-------------------------------------------------------------8------6--8------------------------------|
G------------------------------------------------------------------------------------7--5----------------------|
D--------------------------------------------------------------------------------------------------------------|
A--------------------------------------------------------------------------------------------------------------|
E--------------------------------------------------------------------------------------------------------------|


e----------------------------6-6-6---5-------------------------------------------------------------------------|
B-------------------6--8---------------------------------------------------------------------------------------|
G--------5-5-5-7-----------------------------------------------------------------------------------------------|
D--------------------------------------------------------------------------------------------------------------|
A--------------------------------------------------------------------------------------------------------------|
Comments