Rice Damien - Older Chests Chords & Tabs

 

Older Chests Chords & Tabs

Rice Damien Chords & Tabs

Version: 1 Type: Tab 3 ratings
1 star 2 stars 3 stars 4 stars 5 stars
comments

Older Chests Tab

OLDER CHESTS – DAMIEN RICE

This song is very simple. Below are the backbone patterns for the verse and chorus sections, which are fairly similar to each other.  Good luck!

Verses:

|----------------|----------------| *
|----1-----1-----|----1-------1---| 
|--0-----0---0---|--0---0---0---0-| 
|------2---------|----------------| 
|3---------------|----------------| 
|--------------0-|1-------3-------| (x2)

|----------------|----------------|----------------|----------------|
|----1-----1-----|----1-----1-----|----1-----1-----|----1-------1---|
|--2-----2---2---|--0-----0---0---|--0-----0---0---|--0---0---0---0-|
|------2---------|--------------0-|3-----3-------3-|3---------------|
|0-------------0-|2-----3---------|----------------|----------------|
|----------------|----------------|----------------|--------3-------|
[ Tab from: http://www.guitartabs.cc/tabs/r/rice_damien/older_chests_tab.html ]
* Variation 
|----------------|----------------|
|----1-----1-----|----1-----1-----| 
|--0-----0---0---|--0-----0---0---| 
|------2---------|--------------0-| 
|3---------------|----------------| 
|--------------0-|1-----3---------| 


Choruses:

|--------0-------|----------------|
|----1-------1---|----1-----1-----| 
|--0-----------0-|--0-----0---0---| 
|------2---2-----|--------------0-| 
|3---------------|----------------| 
|----------------|1-----3---------| (x2)

|--------0-------|--0-------------|----------------|----------------|
|----1-------1---|----1-----1---1-|----1-----1-----|----1-------1---|
|--2-----------2-|------2---------|--0-----0---0---|--0---0---0---0-|
|------2---2-----|----------------|3-----3-------3-|3---------------|
|0---------------|0-------2---3---|----------------|----------------|
|----------------|----------------|----------------|--------3-------|
Comments