Rice Damien - Cannonball Chords & Tabs

 

Cannonball Chords & Tabs

Rice Damien Chords & Tabs

Version: 1 Type: Tab 7 ratings
1 star 2 stars 3 stars 4 stars 5 stars
comments

Cannonball Tab

   
Intro and Verse:


        Em        C         G         D/f#       Em
e:-------------------------------0-----0--0---------|
B:-------------------------------3-----3--3---------|  play this part twice
G:-------------------------------0-----2--0h2p0-----|  then move onto the next 
D:------5-5-5-5-4-2--0h2p0-------0-----0--0------2--|  part below
A:------2-2-2-2-2-3--3------0h2--2-----0--0------2--|
E:--0-----------------------3----3--3--2--2------0--|





    G                       G         D/f#       Em   C
e:-------------------------------0-----0--0-----------0--
B:------0-0-0-0-0-0-0-0----------3-----3--3-----------1--
G:------4-4-4-4-4/5-4-0/2--------0-----2--2p0---------0--
D:------0-0-0-0-0-0-0-0----------0-----0--0------2----2--
A:------2-2-2-2-2-2-2-2-----0h2--2-----0--0------2----3--
E:--3-----------------------3----3-----2--2------0-------
                                 ^     ^  ^      ^         
                                str  str str    str 
[ Tab from: http://www.guitartabs.cc/tabs/r/rice_damien/cannonball_tab.html ]
                   C
e:-----------------0----/---------------|       
B:-----------------1----/----3---3------|       
G:-----------------0---------0---0------|
D:----------0h2----2----/----4---4------|
A:--0h2-2h3--------3----/----5---5------|
E:-------------------------------2--2/--|
                   ^         ^   ^
                  str       str  str


Chorus
      G       Cadd9   D/f#     D/f#
e:----0-------0-------0--------0-----|
B:----3-------3-------3--------3-----|     Play this three times then 
G:----0-------0-------2--------2p0---|    continue below
D:----0-------0h2-----0--------0-----|
A:----2-------3-------0--------0-----|
E:----3---------------2--------2-----|



     C                    C            
e:----------------------------------------------|
B:---1p0h1-------1--------1----/----3---3-------|
G:---0-----------0--------0---------0---0-------|
D:---2---------------0h2--2----/----4---4-------|
A:---3-------0h2--2h3-----3----/----5---5-------|
E:--------------------------------------2-------|
     ^                    ^         ^   ^                                                                
    str                  str       str str


Comments